Yes - Starship Trooper Chords & Tabs

 

Starship Trooper Chords & Tabs

Yes Chords & Tabs

Version: 1 Type: Tab 0 ratings
1 star 2 stars 3 stars 4 stars 5 stars
comments

Starship Trooper Tab

   
WURM

part III of STARSHIP TROOPER

from "THE YES ALBUM"
BY: YES
Tabbed by WCS

                   G                                            Eb
E||------|-------3----3----3----|--3----3----3----3----|--3----3----|
B||------|-------0----0----0----|--0----4----4----4----|--4----4----|
G||------|-------0----0----0----|--0----3----3----3----|--3----3----|
D||------|--0----0----0----0----|--0----0----0----0----|------------|
A||------|--2----2----2----2----|--2-------------------|------------|
E||------|--3----3----3----3----|--3-------------------|------------|

[ Tab from: http://www.guitartabs.cc/tabs/y/yes/starship_trooper_tab.html ]
    C
--0----0----||
--1----1----||
--0----0----||
--2----2----||
--3----3----||
------------||        x4


on fifth time, the acoustic guitar comes in


-----3--3--3---|---3--3--3--3---|---3--3--|---0--0---|------|
-----0--0--0---|---0--0--4--4---|---4--4--|---1--1---|------|
-----0--0--0---|---0--0--3--3---|---3--3--|---0--0---|------|
-----0--0--0---|---0--0--0--0---|---0--0--|---2--2---|------|
-----2--2--2---|---2--2---------|----------|---3--3---|-----|
-----3--3--3---|---3--3---------|----------|----------|-----|

Sorry, I dont know the solo. But that will come soon.
Comments