Yes - Roundabout Chords & Tabs

 

Roundabout Chords & Tabs

Yes Chords & Tabs

Version: 8 Type: Tab 0 ratings
1 star 2 stars 3 stars 4 stars 5 stars
comments

Roundabout Tab

Name - Mickey Ursitti
Location - Whippany NJ 
I play - American Strat 
Email - Dummyup21@aol.com
 
I have seen this tab with atleast 5 unplayed notes in the song..
so if u want it to be played right here you go ...

Band - Yes 
Song - Roundabout

You need to listen to get the notes to match with the timing its really simple


Intro 
..........................................................

e |----<12>-----------------------------------------------
B |--<12>-----12-10h11p10---------10----------------------
G |<12>----------------------12---------------------------
D |-------------------------------------------------------
A |-------------------------------------------------------
E |-------------------------------------------------------

..........................................................
[ Tab from: http://www.guitartabs.cc/tabs/y/yes/roundabout_tab_ver_8.html ]
e |---------<12>------------------------------------------ 
B |-------<12>------12-10h11p10--------------------------- 
G |-----<12>-----------------------12--------------------- 
D |--------------------------------------9h10h12---------- 
A |----------------------------------------------9h10h12--             
E |<12>--------------------------------------------------8

..........................................................

e |---------<12>------------------------------------------
B |-------<12>-----12-10h11p10------------10--------------
G |-----<12>----------------------12--------------12------
D |-------------------------------------------------------
A |-------------------------------------------------------
E |<12>---------------------------------------------------
                                                           
..........................................................
Comments