Yes - Roundabout Chords & Tabs

 

Roundabout Chords & Tabs

Yes Chords & Tabs

Version: 5 Type: Tab 3 ratings
1 star 2 stars 3 stars 4 stars 5 stars
comments

Roundabout Tab

ROUNDABOUT
Yes

from the album “Fragile” (1972)


transcribed by Steve Garner (s_garner@hotmail.com)



This is the correct way to play the intro to Roundabout. I’ve transcribed
the middle and ending acoustic parts as well, but they’re basically the 
same as the intro with a couple of minor changes.

IMPORTANT: All notes in * * are harmonics!!



INTRO: (0:07)

|---*12*---|---7----5h7p5p3--------5---|
|---*12*---|------------------7--------|
|---*12*---|---------------------------|
|----------|---------------------------|
|----------|---------------------------|
|---*12*---|---------------------------|

|----------*12*---|---7----5h7p5p3-------|-----------------------|
|----------*12*---|------------------7---|-----------------------|
|----------*12*---|----------------------|---4h5h7---------------|
|-----------------|----------------------|----------4h5h7--------|
|-----------------|----------------------|-------------------3---|
|---*12*----------|----------------------|-----------------------|

|----------*12*---|---7----5h7p5p3--------5---------|
|----------*12*---|------------------7----------7---|
|----------*12*---|---------------------------------|
|-----------------|---------------------------------|
|-----------------|---------------------------------|
|---*12*----------|---------------------------------|

|---2----3---3p2p0------0---------------|-------------------------------|
|-------------------3-------3---1---0---|---3---0---1-------0-----------|
|---------------------------------------|---------------2-------0---2---|
|---0-----------------------------------|-------------------------------|
|-----------------------3---------------|---2-------0-------------------|
|---------------------------------------|-------------------3-------2---|


VERSE HARMONICS: 
(0:44)
[ Tab from: http://www.guitartabs.cc/tabs/y/yes/roundabout_tab_ver_5.html ]
|---*12*---*12*---------------------------------------*12*---|
|---*12*---*12*----*7*----*5*----*7*----*5*----*7*----*12*---|
|------------------*7*----*5*----*7*----*5*----*7*-----------|
|------------------------------------------------------------|
|------------------------------------------------------------|
|------------------------------------------------------------|

|---*12*---*12*-------------------------*12*---|
|---*12*---*12*----*7*----*5*----*7*----*12*---|
|------------------*7*----*5*----*7*-----------|
|----------------------------------------------|
|----------------------------------------------|
|----------------------------------------------|


INTERLUDE:
(4:57)

|-----*12*---|---7----5h7p5p3--------5---|
|-----*12*---|------------------7--------|
|-----*12*---|---------------------------|
|------------|---------------------------|
|------------|---------------------------|
|---*12*-----|---------------------------|

|----------*12*---|---7----5h7p5p3-------|-----------------------|
|----------*12*---|------------------7---|-----------------------|
|----------*12*---|----------------------|---4h5h7---------------|
|-----------------|----------------------|----------4h5h7--------|
|-----------------|----------------------|-------------------3---|
|---*12*----------|----------------------|-----------------------|

|----------*12*---|---7----5h7p5p3--------5---|
|----------*12*---|------------------7--------|
|----------*12*---|---------------------------|
|-----------------|---------------------------|
|-----------------|---------------------------|
|---*12*----------|---------------------------|

|---7----5h7p5p3-------|---------------------------|
|------------------7---|---------------------------|
|----------------------|---4--5--7-----------------|
|----------------------|------------4--5--7--------|
|----------------------|-----------------------3---|
|----------------------|---------------------------|


ENDING: 
(8:21)

|---2---3--3p2p0------0--------------------------------------0-----|
|-----------------3------3--1--0---3--0--1-----0-------------0-----|
|-------------------------------------------2-----0---2------1-----|
|---0--------------------------------------------------------2-----|
|---------------------3------------2-----0-------------------2-----|
|----------------------------------------------3------2------0-----|
Comments