Yes - Roundabout Chords & Tabs

 

Roundabout Chords & Tabs

Yes Chords & Tabs

Version: 11 Type: Tab 0 ratings
1 star 2 stars 3 stars 4 stars 5 stars
comments

Roundabout Tab

   
-------------------------------------------------------------------------------
			     Roundabout - By Yes
                             Ultimate-Guitar.com
-------------------------------------------------------------------------------
Tabbed by: Jeff
Email: coffeeguy9@gmail.com

Tuning: Standard (EADGBe)

The reason I am tabbing this song is for 2 reasons. The rest of the tabs of this song
on thie site are way off. And I really love this song, This is how it is played, it
sounds much better on an Acoustic guitar with Nylon strings, the harmonics are louder.
Feedback is useful. Make sure you remember that + Means Harmonic. If you do now know
what a harmonic is, Then this song may be challenging.

| /  slide up
| \  slide down
| h  hammer-on
| p  pull-off
| ~  vibrato
| +  harmonic
| x  Mute note
[ Tab from: http://www.guitartabs.cc/tabs/y/yes/roundabout_tab_ver_11.html ]
    Intro
e|--------+12-----7----5h7p5p3-------5--------+12----7----5h7p5p3-------5----|
B|--------+12--------------------7------------+12-------------------7--------|
G|--------+12---------------------------------+12----------------------------|
D|---------------------------------------------------------------------------|
A|---------------------------------------------------------------------------|
E|--+12---------------------------------+12----------------------------------|
                                                     Much Faster
e|-----------------------+12-----7----5h7p5p3--------2-3-3p2p0---0-----------|
B|-----------------------+12--------------------7-------------3-----3--1--0--|
G|-4h5h7-----------------+12-------------------------------------------------|
D|-------4h5h7---------------------------------------0-----------------------|
A|-------------3-------------------------------------------------3-----------|
E|-----------------+12-------------------------------------------------------|
            End Intro
e|------------------0-|
B|-3--0--1---0------0-|
G|---------2---0-2--0-|
D|------------------2-|
A|-2-----0----------2-|
E|-----------3---2--0-|
   

   Guitar Part (Nylon Guitar. All Harmonics)
e|-+12----+12--------------------+12----+12--+12-------------+12-|
B|-+12----+12-+7--+5--+7--+5--+7-+12----+12--+12--+7--+5--+7-+12-|
G|------------+7--+5--+7--+5--+7------------------+7--+5--+7----.|
D|--------------------------------------------------------------.|
A|---------------------------------------------------------------|
E|---------------------------------------------------------------|


YES, I WILL INCLUDE THE BASS LINE!!! (The Greatest Bass Line Ever written)

(Play this over the Main Part)
G|------------------------------------|
D|--------------0h2---------------0h2-|
A|-----------0h3---------------0h2----|
E|-0-0h2-0h3---------0-0h2-0h2--------|


| /  slide up
| \  slide down
| h  hammer-on
| p  pull-off
| ~  vibrato
| +  harmonic
| x  Mute note
==============================================================================
Comments