Yes - Roundabout Chords & Tabs

 

Roundabout Chords & Tabs

Yes Chords & Tabs

Version: 10 Type: Tab 0 ratings
1 star 2 stars 3 stars 4 stars 5 stars
comments

Roundabout Tab

I just wanted to throw this out there seeing as how the other versions of the song were a bit off.

Intro

|-----Har12-----------------------|
|-----Har12---12-10h12p10----10~~~|
|-----Har12---------------11------|
|---------------------------------|
|---------------------------------|
|-0~~~----------------------------|


|---------Har12-----------------------------------|
|---------Har12---12-10h12p10----10~~~------------|
|---------Har12---------------11------------------|
|-------------------------------------9h10h12-----|
|-------------------------------------9h10h12-----|
|--Har12--------------------------------------8~~~|


[ Tab from: http://www.guitartabs.cc/tabs/y/yes/roundabout_tab_ver_10.html ]
|------Har12--------------------------|
|------Har12---12-10h12p10----10------|
|------Har12---------------11----11~~~|
|-------------------------------------|
|-------------------------------------|
|-Har12-------------------------------|



here comes the hard part...

|-2-3-3p2p0---0------------------------|
|-----------3---3-1-0-3---1---0--------|
|-----------------------4---2---0--2-0-|
|-0------------------------------------|
|-------------3-------2---0------------|
|-----------------------------3----2-0-|

Bridge
|------------------------------------|
|------------------------------------|
|------------------------------------|
|------------------------------------|
|-------0-2-0---0--2-0---0-----------|
|-0-2-3-------3--------3---3-2-3p2p0-|

This is all I had time to figure out. Just look at the other tabs for the verses and all that.
Comments