Yes - Roundabout Chords & Tabs

 

Roundabout Chords & Tabs

Yes Chords & Tabs

Version: 1 Type: Tab 1 rating
1 star 2 stars 3 stars 4 stars 5 stars
comments

Roundabout Tab

   
I didn't make this up, this is how it goes!

The following notation is used:

 - Natural Harmonic
3h5  - Hammer on
5p3  - Pull off

e|----------|7---5h7p5---------5--|----------|7---5h7p5---------|
B|----------|------------8-7------|----------|-----------8-7----|
G|----------|---------------------|----------|------------------|
D|--------------|---------------------|--------------|------------------|
A|--------------|---------------------|--------------|------------------|
E|----------|---------------------|----------|------------------|
[ Tab from: http://www.guitartabs.cc/tabs/y/yes/roundabout_tab.html ]
e|---------------|----------|7---5h7p5---------5----|
B|---------------|----------|------------8-7--------|
G|4h5h7----------|----------|-----------------------|
D|-----4h5h7-----|--------------|-----------------------|
A|----------3----|--------------|-----------------------|
E|---------------|----------|-----------------------|

e|2-3-2h3p2-p0--|0-------|--------|--------0-xx-2-xx-3-xx-|
B|--------------|--3-1-0-|3-0-1---|0-------0-xx-2-xx-3-xx-|
G|--------------|--------|------2-|--0-2---0-xx-2-xx-4-xx-|
D|0-------------|--------|--------|------4-2-xx-4-xx-5-xx-|
A|--------------|3-------|2---0---|--------2-xx-4-xx-5-xx-|
E|--------------|--------|--------|3---2---0-xx-2-xx-3-xx-|

e|2-xx-3-xx-2-0-|
B|2-xx-3-xx-2-0-|
G|2-xx-4-xx-2-0-|
D|4-xx-5-xx-4-2-|
A|4-xx-5-xx-4-2-|
e|2-xx-3-xx-2-0-|
Comments