Yes - Roundabout (acoustic) Chords & Tabs

 

Roundabout (acoustic) Chords & Tabs

Yes Chords & Tabs

Version: 1 Type: Tab 2 ratings
1 star 2 stars 3 stars 4 stars 5 stars
comments

Roundabout (acoustic) Tab

"Roundabout"
By "Yes" and from the album "Fragile"
This is just an easier way to play it, but sound the EXACT same as the other ones on GTU
Posted By Zack Lipton (zacklipton44@hotmail.com)

Anything in brackets [()] is harmonics

E|---(13)---|---------------------------|
B|---(13)---|---12--10h12p10---------10-|
G|---(13)---|-----------------12--11----|
D|----------|---------------------------|
A|----------|---------------------------|
E|---(13)---|---------------------------|

E|----------(13)---|-----------------------------|----------------------|
B|----------(13)---|---12--10h12p10---------10---|----------------------|
G|----------(13)---|----------------12--11----11-|----------------------|
D|-----------------|-----------------------------|-10h11h13-------------|
A|-----------------|-----------------------------|---------10h11h13-----|
E|---(13)----------|-----------------------------|-------------------8--|

E|----------(13)---|------------------------------|
B|----------(13)---|---12--10h12p10---------10----|
G|----------(13)---|----------------12--11----11--|
D|-----------------|------------------------------|
A|-----------------|------------------------------|
E|---(13)----------|------------------------------|

E|---2----3---3p2p0------0---------------|-------------------------------|
B|-------------------3-------3---1---0---|---3---0---1-------0-----------|
G|---------------------------------------|---------------2-------0---2---|
D|---0-----------------------------------|-------------------------------|
A|-----------------------3---------------|---2-------0-------------------|
E|---------------------------------------|-------------------3-------2---|


The verses also have harmonics:

E|---(13)---(13)---------------------------------------(13)---|
B|---(13)---(13)----(7)----(5)----(7)----(5)----(7)----(13)---|
G|------------------(7)----(5)----(7)----(5)----(7)-----------|
D|------------------------------------------------------------|
A|------------------------------------------------------------|
E|------------------------------------------------------------|
[ Tab from: http://www.guitartabs.cc/tabs/y/yes/roundabout_acoustic_tab.html ]
E|---(13)---(13)-------------------------(13)---|
B|---(13)---(13)----(7)----(5)----(7)----(13)---|
G|------------------(7)----(5)----(7)-----------|
D|----------------------------------------------|
A|----------------------------------------------|
E|----------------------------------------------|

Next interlude goes like this:



E|----------(13)---|---------------------------|
B|----------(13)---|---12--10h12p10---------10-|
G|----------(13)---|-----------------12--11----|
D|-----------------|---------------------------|
A|-----------------|---------------------------|
E|---(13)----------|---------------------------|

E|----------(13)---|-----------------------------|----------------------|
B|----------(13)---|---12--10h12p10--------------|----------------------|
G|----------(13)---|----------------12-----------|----------------------|
D|-----------------|-----------------------------|-10h11h13-------------|
A|-----------------|-----------------------------|---------10h11h13-----|
E|---(13)----------|-----------------------------|-------------------8--|

E|----------(13)---|------------------------------|
B|----------(13)---|---12--10h12p10-----10--------|
G|----------(13)---|----------------12------------|
D|-----------------|------------------------------|
A|-----------------|------------------------------|
E|---(13)----------|------------------------------|

E|-----------------------------|----------------------|
B|---12--10h12p10--------------|----------------------|
G|----------------12-----------|----------------------|
D|-----------------------------|-10h11h13-------------|
A|-----------------------------|---------10h11h13-----|
E|-----------------------------|-------------------8--|

And, finally, the ending

|---2---3--3p2p0------0--------------------------------------0-----|
|-----------------3------3--1--0---3--0--1-----0-------------0-----|
|-------------------------------------------2-----0---2------1-----|
|---0--------------------------------------------------------2-----|
|---------------------3------------2-----0-------------------2-----|
|----------------------------------------------3------2------0-----|

Thats the whole acoustic part of the song.
Questions and Corrections email me at: zacklipton44@hotmail.com						
Comments