Yes - Owner Of A Lonely Heart Chords & Tabs

 

Owner Of A Lonely Heart Chords & Tabs

Yes Chords & Tabs

Version: 2 Type: Bass Tab 0 ratings
1 star 2 stars 3 stars 4 stars 5 stars
comments

Owner Of A Lonely Heart Bass Tab

Owner Of A Lonely Heart - Yes

  main riff      you can vary the main riff to these
G|--------------|---------------|-----------7---|
D|--------------|-----------55--|------------5--|
A|------55------|-------55------|-------55------|
E|5--78-----33--|5--78----------|5--78----------|
[ Tab from: http://www.guitartabs.cc/tabs/y/yes/owner_of_a_lonely_heart_btab_ver_2.html ]
almost 2 minutes into the song, it changes to this riff
  "owner of a lonely heeeeeart"
G|-5h7h9-6----------------|
D|7--------9-7-5--7-5---5-|
A|--------------7-----7---|
E|------------------------|

  outro: use the riff above a few times and then the following

           outro riff (repeat until fade out)
G|--------|--------------11-9----11-9----9-|
D|5--4----|--7h9h11-8---------11------11---|
A|------7-|-9---------11-------------------|
E|--------|--------------------------------|

tabbed by Achilles (blue_sincere@hotmail.com)
Comments