Yes - Long Distance Runaround Chords & Tabs

 

Long Distance Runaround Chords & Tabs

Yes Chords & Tabs

Version: 1 Type: Tab 0 ratings
1 star 2 stars 3 stars 4 stars 5 stars
comments

Long Distance Runaround Tab

artist: yes

title: long distance runaround



e:-----|-------------15----13-12--------------|-------------15----13-12-15-16-15--------------|
B:-----|----------15-------------13-----------|----------15----------------------16-17--------|
G:-----|----12-15-------------------12--------|----12-15--------------------------------------|
D:--15-|-14--------------------------------15-|-14-----------------------------------------15-|
A:-----|--------------------------------------|-----------------------------------------------|
E:-----|--------------------------------------|-----------------------------------------------|

[ Tab from: http://www.guitartabs.cc/tabs/y/yes/long_distance_runaround_tab.html ]
e:--------------15----13-12--------------|-----------------------------------------------------------------------|
B:-----------15-------------13-----------|-----------------------------------------------------------------------|
G:-----12-15-------------------12-----15-|-14----------------------12-------13-------15-------17-------18--------|
D:--14-----------------------------------|----15-14-------------------12-------12-------12-------12-------12-----|
A:---------------------------------------|----------15-14----------------12-------12-------12-------12-------12--|
E:---------------------------------------|----------------15-14-15-----------------------------------------------|
Comments