Yes - I've Seen All Good People Chords & Tabs

 

Yes Chords & Tabs

Version: 1 Type: Tab 0 ratings
1 star 2 stars 3 stars 4 stars 5 stars
comments

I've Seen All Good People Tab

   
Artist: Yes
Song: I've seen all good people


Acoustic Guitar
CAPO ON 2 (The 2nd fret is still referred to as 2nd fret, some people
call it 0 with a capo there, but I don't, just to be clear.)
Standard Tuning

e-|-7-7h9p7-7-9p7-7-12-11-7-------7-7h9p7-7-9p7-------------7-7h9p7-9p7-|
B-|-------------------------9-7-----------------7---9-9-7---------------|
G-|-9-9-----9-9---9-13-11-9-----9-9-9-----9-9-9---9-------9-9-9-----9-9-|
D-|-------------------------2-2-6---------------2-6-2-2-2-6-------------|
A-|---------------------------------------------------------------------|
E-|---------------------------------------------------------------------|
[ Tab from: http://www.guitartabs.cc/tabs/y/yes/ive_seen_all_good_people_tab.html ]
e-|-7-12-11-14-12-16-14----16-14----16-14----17-14----16-14----16-|
B-|---------------------12-------12-------12-------12-------12----|
G-|-9-13-11-14-13-16----------------------------------------------|
D-|---------------------------------------------------------------|
A-|---------------------------------------------------------------|
E-|---------------------------------------------------------------|

The rest of the song goes like this over and over until it goes
into "Your Move" and you can strum this however you want.

     E		A6          Emaj7       A6
e-|--4--4--4--4--5--5--5--5--7--7--7--7--5--5--5--5-|
B-|--5--5--5--5--7--7--7--7--9--9--9--9--7--7--7--7-|
G-|--4--4--4--4--6--6--6--6--8--8—-8--8--6--6--6--6-|
D-|--2--2--2--2--7--7--7--7--9--9—-9--9--7--7--7--7-|
A-|--------------------------7--7--7--7-------------|
E-|-------------------------------------------------|

Rhythm for 2nd part of song (I’ve Seen all good people)
e-|-----------------------------------------------------------------------|
B-|-----------------------------------------------------------------------|
G-|-----------------------------------------------------------------------|
D-|-----------------------------------------------------------------------|
A-|-7-7-9-7-7-9-7-7-9-7-7-9-7-7-9-7-7-9-7-7-9-9-9-11-9-9-11-9-9-11-9-9-11-|
E-|-5-5-5-5-5-5-5-5-5-5-5-5-5-5-5-5-5-5-5-5-5-7-7-7--7-7-7--7-7-7--7-7-7--|


Comments