Yes - Close To The Edge Chords & Tabs

 

Close To The Edge Chords & Tabs

Yes Chords & Tabs

Version: 1 Type: Tab 0 ratings
1 star 2 stars 3 stars 4 stars 5 stars
comments

Close To The Edge Tab

   
#----------------------------------PLEASE NOTE---------------------------------#
#This file is the author's own work and represents their interpretation of the #
#song. You may only use this file for private study, scholarship, or research. #
#------------------------------------------------------------------------------#
From: Randall Morelli  (randall.morelli@isgbroadband.com)
Subject:
          Close to the Edge     1. The Solid Time of Change

Word and Music by Jon Anderson and Steve Howe


This is a version I worked out from the sheet music.  Some parts could
not adapt to a single guitar, so I just fudged it.  



Key: D  12/8 time

        D               C6/9          Bm7              Am7

-3-||-2-------0----2-------0--2------|-0---------------0.-------------3-|
   ||
---||------3----------3------------3-|----------------------------------|
   ||:
---||-2----2--2----2--2----2--2----2-|-2----2--2----2--2.---------------|
   ||   
---||-0.-----------------------------|----------------------------------|
   ||:
---||-----------------3.-------------|-2.--------------0.---------------|
   ||
---||--------------------------------|----------------------------------|


     Gmaj9           C6/9             Bm7              Am7

    |-2-------0----2-------0--2------|-0---------------0.---------------|
    |
    |------3----------3------------3-|----------------------------------|
    |
    |-2----2--2----2--2----2--2----2-|-2----2--2----2--2.---------------|
    |
    |--------------------------------|----------------------------------|
    |
    |-----------------3.-------------|-2.--------------0.---------------|
    |
    |-3.-----------------------------|----------------------------------|
     (T)


      G              G/F               Em7             A/Eb

    |---------------------------------|-----------------2.------0-----3-|
    |
    |-0.------0.------3.------2.------|-----------------2.------2-----2-|
    |
    |-0.------2.------0.------0.------|-0.------2.------2.------2-----2-|
    |
    |-0.------0.------0.------0.------|-2.------2.------1.--------------|
    |
    |---------------------------------|---------------------------------|
    |
    |-3.--------------1.--------------|-0.------------------------------|



      C/D             Bb/C             E7-5/Bb

    |-3--1-----0----1--1----0--1------|-0-------------------------------|
    |
    |-1-----3-------------3---------3-|------3--3----3--3.-----3.-------|
    |
    |------------------3.-------------|-1----1--1----1--1.-----2.-------|
    |
    |-0.------------------------------|-2----2--2----2--2.-----1.-------|
    |
    |------------------3.-------------|-1.--------------1.--------------|
    |
    |---------------------------------|---------------------------------|


      Eb7           Eb7sus4            E7-5/Bb

    |-3.------4.----------------------|----------------3.-------1----3-||
    |                                 |                                ||
    |-2.------2.------4.------3.------|-6.-----6.----------------------||
    |                                 |                               :||
    |-3.------3.------5.------5.------|-6.-----6.------3.-------3------||
    |                                 |                                ||
    |---1--%-------1--4.------4.----6-|-5.-----6.----------------------||
    |                                 |                               :||
    |-1-------1-----------------------|-4.-----4.------1--------1------||
    |                                 |                                ||
    |-----------------4.------4.------|-------------------1--%---------||
                     (T)     (T)

                                     9/8 time
  
      D      D/C     C6/9             Bm7     D/A    Gmaj9     Bm7              F  
[ Tab from: http://www.guitartabs.cc/tabs/y/yes/close_to_the_edge_tab.html ]
    |-2-------0----2-------0--2------|-0----2-------0--2------|-0---------------1..-|
    |
    |------3----------3------------3-|---------3------------3-|-----------------1..-|
    |
    |-2----2--2----2--2----2--2----2-|-2----2--2----2--2----2-|-2----2--2----2--2..-|
    |   
    |-0.-----------------------------|------------------------|-----------------3..-|
    |  
    |---------3.------3.-------------|-2.------0.-------------|-2.--------------3..-|
    |
    |--------------------------------|-----------------3.-----|-----------------1..-|



  Rym Fig 1. -    -    -    -   - end
   
    Am       G/A      Am       Bm/A     Am       Bm/A     Am      Bm/A

  |-0--0--0----------0--0--0--2--2---|-5--5--5--2--2--2--5--5--5--7--7--7-|
  |-1--1--1--0--0----1--1--1--3--3---|-5--5--5--3--3--3--5--5--5--7--7--7-|
  |-2--2--2--0--0----2--2--2--4--4---|-5--5--5--4--4--4--5--5--5--7--7--7-|
  |-2--2--2--0--0----2--2--2--4--4---|-7--7--7--4--4--4--7--7--7--9--9--9-|
  |-0--0--0--0--0----0--0--0--0--0---|-0--0--0--0--0--0--0--0--0--0--0--0-|
  |----------------------------------|------------------------------------|



    Am       G/A      Am     BmA
                               .   
   |-8--8--8--7--7--7--8------10--|   Singing starts here 
   |-10-10-10-8--8--8--10-----12--|   Repeat Rym Fig 1
   |-9--9--9--7--7--7--9--//--11--|
   |----------9--9--9-------------|
   |-0--0--0--0--0--0--0------0---|
   |------------------------------|


against the hour   
            Gm7
            ---3-----3-----3-----3-----|-
            -3.-3---3-3---3-3---3-3----|-    
            -3.--3-33--3-33--3-33--3---|-   Repeat Rym Fig 1
            -3.---3-3---3-3---3-3---3--|-
            -5.-----5-----5-----5------|-   
            -3.-----3-----3-----3------|-



  
   Em           D       Em         F#m  F#m/B  %

----0-----------2--------0-----------2------2-------
----0-----------3--------0-----------2------2-------
----0-----------2--------0-----------2------2-------
----2-----------0--------2-----------4------2-------
----2--------------------2-----------4------4-------
----0--------------------0-----------2------2-------


Guitar Bridge
   F         Dm7-5        C       F
           
--5p6----------1----------0-------1-----
-----5p6-------1----------1-------1-----
--------2p3----1----------0-------2-----
-----------2p3-0----2h3p2---------3-----
--------------------------3-0---0-3-----
------------------------------3---1-1---


(Strum cords to fit song)



    F      F       Dm7-5        C                 F

----1------1---------1----------0-----------------1-------
----1------1---------1----------1-----------------1-------
----2------2---------1----------0-----------------2-------
----3------3---------0----------2-----------------3-------
----3------3--------------------3-----------------3-------
----1------1--------------------------------------1-------



    F      F     F          C

----1------1-----1----------0-----------------------
----1------1-----1----------1-----------------------
----2------2-----1----------0-----------------------
----3------3-----3----------2-----------------------
----3------3-----3----------3-----------------------
----1------1-----1----------------------------------



  Dm         C      Dm          Em     Em
                                . 
--1----------0-------1----------3-------0-----------------
--3----------1-------3----------5-------0-----------------
--2----------0-------2----------4-------0-----------------
--0----------2-------0----------0-------2-----------------
-------------3--------------------------2-----------------
----------------------------------------0-----------------



                                     C   C/B  Am7

--5----3----1----7----5---3----------0----0----0-------
--6----5----3----8----6---5----------1----1----1-------
--5----4----2----7----5---4----------0----0----0-------
--0----0----0----0----0---0----------2----2----2-------
-------------------------------------3----2----0-------
------------------------------------------------------


        Em/A  Em/G  F 

----------0----0----1-----------------------------
----------0----0----1-----------------------------
----------0----0----2-----------------------------
----------2----2----3-----------------------------
----------0---------3-----------------------------
---------------3----1-----------------------------
Comments