Yellowcard - Way Away Chords & Tabs

 

Way Away Chords & Tabs

Yellowcard Chords & Tabs

Version: 3 Type: Tab 0 ratings
1 star 2 stars 3 stars 4 stars 5 stars
comments

Way Away Tab

   
way away
yellowcard
ocean avenue
tabbed by: vince a.
tuning: dropped d (DADGBe)
            
                 intro

               no guitar 1

                guitar 2 
e|-------------------------------------------|
B|--8-10-8-10-8-10-8-8--8-10-8-11-10-8-------|
G|-------------------------------------10-10-|
D|-0-0--0-0--0-0--0----8-8--8-8--8--8-8------|
A|-------------------------------------------|
D|-------------------------------------------|

e|-------------------------------------------|
B|--8-10-8-10-8-10-8-8--8-10-8-11-10-8~~-----|
G|-------------------------------------------|
D|-0-0--0-0--0-0--0----8-8--8-8--8--8--------|
A|-------------------------------------------|
D|-------------------------------------------|

       guitar 1 
e|-------------------------------------------|
B|-------------------------------------------|
G|-------------------------------------------|
D|-000000-555-8888888-333----X2--------------|
A|-000000-555-8888888-333--------------------|
D|-000000-555-8888888-333--------------------|

                       guitar 2
e|---------------------------------------------------------|
B|---------------------------------------------------------|
G|-1212-14-12-14-12-14-121212-1212-14-12-15-14-12-101010---|
D|-xxxx-xx-xx-xx-xx-xx-xxxxxx-xxxx-xx-xx-xx-xx-xx-x-x-x--x2|
A|-1010-12-10-12-10-12-101010-1010-12-10-13-12-10-8-8-8----|
D|---------------------------------------------------------|


                     verse 1

                    guitar 1
  comes in on "all the same" & "not afraid"
e|------------------------------------------|
B|------------------------------------------|
G|------------------------------------------|
D|-3333-222222------------------------------|
A|-3333-333333------------------------------|
D|-3333-222222------------------------------|

                    guitar 2
e|--5----55-------5----55-------5----55------------------|
B|---5-7---5-7-7---5-7---5-7-7---5-7---5-7-7-------------|
G|-7-------------7-------------7-------------------------|
D|-------------------------------------------333-22222-x2|
A|-------------------------------------------333-33333---|
D|-------------------------------------------333-22222---|


                       chorus

                      guitar 1
e|-------------------------------------------------------------------------|
B|-------------------------------------------------------------------------|
G|-------------------------------------------------------------------------|
D|-0000000-3333333-8888888-777777-55555555-000000-2222222-555555-888888888-|
A|-0000000-3333333-8888888-888888-55555555-000000-3333333-555555-888888888-|
D|-0000000-3333333-8888888-777777-55555555-000000-2222222-555555-888888888-|

                      guitar 2
e|-------------------------------------------------------------------------|
B|-------------------------------------------------------------------------|
G|-----------------------------------------777-999-101010------------------|
D|-0000000-3333333-8888888-777777-55555555-xxx-xxx-x-x-x--555555-88888888--|
A|-0000000-3333333-8888888-888888-55555555-555-777-8-8-8--555555-88888888--|
D|-0000000-3333333-8888888-777777-55555555----------------555555-88888888--|


                    pre verse
       
                    guitar 1 
e|-------------------------------------------|
B|-------------------------------------------|
G|-------------------------------------------|
D|-000000-555-8888888-333----X2--------------|
A|-000000-555-8888888-333--------------------|
D|-000000-555-8888888-333--------------------|

                       guitar 2
e|---------------------------------------------------------|
B|---------------------------------------------------------|
G|-1212-14-12-14-12-14-121212-1212-14-12-15-14-12-101010---|
D|-xxxx-xx-xx-xx-xx-xx-xxxxxx-xxxx-xx-xx-xx-xx-xx-x-x-x--x2|
A|-1010-12-10-12-10-12-101010-1010-12-10-13-12-10-8-8-8----|
D|---------------------------------------------------------|


                     verse 2

                    guitar 1 
e|---------------------------------------------------|
B|---------------------------------------------------|
G|---------------------------------------------------|
D|-777777777-555555555-3333333333-33333-222222--x2---|
A|-555555555-333333333-1111111111-33333-333333-------|
D|--------------------------------33333-222222-------|
[ Tab from: http://www.guitartabs.cc/tabs/y/yellowcard/way_away_tab_ver_3.html ]
                    guitar 2
e|--5----55-------5----55-------5----55------------------|
B|---5-7---5-7-7---5-7---5-7-7---5-7---5-7-7-------------|
G|-7-------------7-------------7-------------------------|
D|-------------------------------------------333-22222-x2|
A|-------------------------------------------333-33333---|
D|-------------------------------------------333-22222---|

            guitar 1
e|-----------------------------|
B|-----------------------------|
G|-----------------------------|
D|-8888888888888-777777777777x-|
A|-8888888888888-888888888888x-|
D|-8888888888888-777777777777x-|

          guitar 2
e|-----------------------------|
B|-----------------------------|
G|-----------------------------|
D|---3---3---3---3--3--3x------|
A|-11-111-111--00-00-00-x------|
D|----------------------x------|


                       chorus

                      guitar 1
e|-------------------------------------------------------------------------|
B|-------------------------------------------------------------------------|
G|-------------------------------------------------------------------------|
D|-0000000-3333333-8888888-777777-55555555-000000-2222222-555555-888888888-|
A|-0000000-3333333-8888888-888888-55555555-000000-3333333-555555-888888888-|
D|-0000000-3333333-8888888-777777-55555555-000000-2222222-555555-888888888-|

                      guitar 2
e|-------------------------------------------------------------------------|
B|-------------------------------------------------------------------------|
G|-----------------------------------------777-999-101010------------------|
D|-0000000-3333333-8888888-777777-55555555-xxx-xxx-x-x-x--555555-88888888--|
A|-0000000-3333333-8888888-888888-55555555-555-777-8-8-8--555555-88888888--|
D|-0000000-3333333-8888888-777777-55555555----------------555555-88888888--|

                      bridge

                      guitar 1
e|---------------------------------------|
B|---------------------------------------|
G|--------------no guitar----------------|
D|---------------------------------------|
A|---------------------------------------|
D|---------------------------------------|

              guitar 2
e|--5----55------5-8-5-55-85-5-|-5~~~~-|
B|---5-7---5-77----------------|-6~~~~-|
G|-7------------7--------------|-7~~~~-|
D|-----------------------------|-7~~~~-|
A|-------------x5--------------|-5~~~~-|
D|-----------------------------|-------|

                      guitar 1
e|---------------------------------------------|
B|---------------------------------------------|
G|---------------------------------------------|
D|-0000000000000000000000-888888888888888888-x4|
A|-0000000000000000000000-888888888888888888---|
D|-0000000000000000000000-888888888888888888---|

                      guitar 2
e|---------------------------------------------|
B|---------------------------------------------|
G|-777/999/1010/12121212-----------------------|
D|-xxx-xxx-x-x--x-x-x-x-- 888888888888888888-x4|
A|-555/777/8-8-/10101010--888888888888888888---|
D|------------------------888888888888888888---|

           guitar 1
e|---------------------------|
B|---------------------------|
G|---------------------------|
D|-888888888888888888888-00x-|
A|-888888888888888888888-00x-|
D|-888888888888888888888-00x-|
             
           guitar 2         
e|---------------------------|
B|---------------------------|
G|-777/999/1010/12121212-----|
D|-xxx-xxx-x-x--x-x-x-x--00x-|
A|-555/777/8-8-/10101010-00x-|
D|-----------------------00x-|


                    final chorus
         * begins on 2nd chord when ryan says "be"

                     guitar 1
e|------------------------------------------------------------------|
B|------------------------------------------------------------------|
G|------------------------------------------------------------------|
D|-3333333-8888888-777777-55555555-000000-2222222-555555-888888888x-|
A|-3333333-8888888-888888-55555555-000000-3333333-555555-888888888x-|
D|-3333333-8888888-777777-55555555-000000-2222222-555555-888888888x-|

                      guitar 2
e|-----------------------------------------------------------------|
B|-----------------------------------------------------------------|
G|---------------------------------777-999-101010------------------|
D|-3333333-8888888-777777-55555555-xxx-xxx-x-x-x--555555-88888888x-|
A|-3333333-8888888-888888-55555555-555-777-8-8-8--555555-88888888x-|
D|-3333333-8888888-777777-55555555----------------555555-88888888x-|



finally done. note that the strumming isnt correct u would just have to find it
out yourself. its not that hard. for any questions improvements or death threats
and crap, email me at uncle_bobathon@hotmail.com
Comments