Yellowcard - Way Away Chords & Tabs

 

Way Away Chords & Tabs

Yellowcard Chords & Tabs

Version: 1 Type: Tab 0 ratings
1 star 2 stars 3 stars 4 stars 5 stars
comments

Way Away Tab

   
-------------------------------------------------------------------------------
			     Way Away - Yellowcard
-------------------------------------------------------------------------------

Tabbed by: Brian
Email: guitar_freak7@msn.com
 
Tuning:(DADGBE)

                                  GUITAR 1
                               ---------------

Intro:  X2
e|-----3-----5----3----5----3----5--3-------3----5----3--6-5-3-1-------------| 
B|--------3----3-----3---3----3---------------3-----3------------------------|
G|---------------------------------------3-----------------------------------|
D|--0------------------------------------------------------------------------|
A|---------------------------------------------------------------------------|
D|---------------------------------------------------------------------------|


Intro Cont'd:  X2
e|---------------------------------------------------------------------------| 
B|---------------------------------------------------------------------------|
G|---------------------------------------------------------------------------|
D|-0-0-0-0-0-0-0-0-0-0-0-0-0-5-5-5-8-8-8-8-8-8-8-8-8-8-8-8-8-3-3-3-----------|
A|-0-0-0-0-0-0-0-0-0-0-0-0-0-5-5-5-8-8-8-8-8-8-8-8-8-8-8-8-8-3-3-3-----------|
D|-0-0-0-0-0-0-0-0-0-0-0-0-0-5-5-5-8-8-8-8-8-8-8-8-8-8-8-8-8-3-3-3-----------|


Verse: "I think I'm breaking out..."

No Guitar 1

Verse Cont'd: "It's all the same"
e|---------------------------------------------------------------------------|
B|---------------------------------------------------------------------------|
G|---------------------------------------------------------------------------|
D|--3-3-3-3-3-2-2-2-2-2------------------------------------------------------|
A|--3-3-3-3-3-3-3-3-3-3------------------------------------------------------|
D|--3-3-3-3-3-2-2-2-2-2------------------------------------------------------|


Repeat Verse


Chorus: "Way away away from here I'll be"
e|---------------------------------------------------------------------------|
B|---------------------------------------------------------------------------|
G|---------------------------------------------------------------------------|
D|-0-0-0-0-0-0-0-0-0-0-0-0-3-3-3-3-3-3-3-3-3-3-3-3---------------------------|
A|-0-0-0-0-0-0-0-0-0-0-0-0-3-3-3-3-3-3-3-3-3-3-3-3---------------------------|
D|-0-0-0-0-0-0-0-0-0-0-0-0-3-3-3-3-3-3-3-3-3-3-3-3---------------------------|


Chorus Cont'd: "Way away away so you can see"
e|---------------------------------------------------------------------------|
B|---------------------------------------------------------------------------|
G|---------------------------------------------------------------------------|
D|-8-8-8-8-8-8-8-8-8-8-8-8-7-7-7-7-7-7-7-7-7-7-7-7---------------------------|
A|-8-8-8-8-8-8-8-8-8-8-8-8-8-8-8-8-8-8-8-8-8-8-8-8---------------------------|
D|-8-8-8-8-8-8-8-8-8-8-8-8-7-7-7-7-7-7-7-7-7-7-7-7---------------------------|


Chours Cont'd: "How it feels to be alone and not believed"
e|---------------------------------------------------------------------------|
B|---------------------------------------------------------------------------|
G|---------------------------------------------------------------------------|
D|-5-5-5-5-5-5-5-5-5-5-5-5-0-0-0-0-0-0-2-2-2-2-2-2---------------------------|
A|-5-5-5-5-5-5-5-5-5-5-5-5-0-0-0-0-0-0-3-3-3-3-3-3---------------------------|
D|-5-5-5-5-5-5-5-5-5-5-5-5-0-0-0-0-0-0-2-2-2-2-2-2---------------------------|


Chorus Cont'd: "Feels to be alone and not believe, anything"
e|---------------------------------------------------------------------------|
B|---------------------------------------------------------------------------|
G|---------------------------------------------------------------------------|
D|-5-5-5-5-5-5-5-5-5-5-5-5-8-8-8-8-8-8-8-8-8-8-8-8---------------------------|
A|-5-5-5-5-5-5-5-5-5-5-5-5-8-8-8-8-8-8-8-8-8-8-8-8---------------------------|
D|-5-5-5-5-5-5-5-5-5-5-5-5-8-8-8-8-8-8-8-8-8-8-8-8---------------------------|


Repeat second part of intro


Verse: "You can't stop me now..."
e|---------------------------------------------------------------------------|
B|---------------------------------------------------------------------------|
G|---------------------------------------------------------------------------|
D|---------------------------------------------------------------------------|
A|-5-5-5-5-5-5-5-5-5-5-5-5-5-5-5-5-3-3-3-3-3-3-3-3-3-3-3-3-3-3-3-------------|
D|---------------------------------------------------------------------------|
   . . . . . . . . . . . . . . . . . . . . . . . . . . . . . . . 
e|---------------------------------------------------------------------------|
B|---------------------------------------------------------------------------|
G|---------------------------------------------------------------------------|
D|---------------------------------------------------------------------------|
A|-1-1-1-1-1-1-1-1-1-1-1-1-1-1-1-1-------------------------------------------|
D|---------------------------------------------------------------------------|
   . . . . . . . . . . . . . . . .

Verse Cont'd: "I'm on my way"
e|---------------------------------------------------------------------------|
B|---------------------------------------------------------------------------|
G|---------------------------------------------------------------------------|
D|-3-3-3-3-3-2-2-2-2-2-------------------------------------------------------|
A|-3-3-3-3-3-3-3-3-3-3-------------------------------------------------------|
D|-3-3-3-3-3-2-2-2-2-2-------------------------------------------------------|


Repeat Verse

[ Tab from: http://www.guitartabs.cc/tabs/y/yellowcard/way_away_tab.html ]
Pre-Chorus: "Yea.."
e|---------------------------------------------------------------------------|
B|---------------------------------------------------------------------------|
G|---------------------------------------------------------------------------|
D|-8-8-8-8-8-8-8-8-8-8-8-8-8-8-8-8-------------------------------------------|
A|-8-8-8-8-8-8-8-8-8-8-8-8-8-8-8-8-------------------------------------------|
D|-8-8-8-8-8-8-8-8-8-8-8-8-8-8-8-8-------------------------------------------|

Repeat Chorus

 
Bridge: No Guitar 1


Breakdown: "Letting out the noise inside of me..."  X4
e|---------------------------------------------------------------------------| 
B|---------------------------------------------------------------------------|
G|---------------------------------------------------------------------------|
D|-0-0-0-0-0-0-0-0-0-0-0-0-0-0-0-0-7-7-7-7-7-7-7-7-7-7-7-7-7-7-7-7-----------|
A|-0-0-0-0-0-0-0-0-0-0-0-0-0-0-0-0-7-7-7-7-7-7-7-7-7-7-7-7-7-7-7-7-----------|
D|-0-0-0-0-0-0-0-0-0-0-0-0-0-0-0-0-7-7-7-7-7-7-7-7-7-7-7-7-7-7-7-7-----------|


Breakdown Cont'd:
e|---------------------------------------------------------------------------|
B|---------------------------------------------------------------------------|
G|---------------------------------------------------------------------------|
D|-7-7-7-7-7-7-7-7-7-7-7-7-7-7-7-7-0-0---------------------------------------|
A|-7-7-7-7-7-7-7-7-7-7-7-7-7-7-7-7-0-0---------------------------------------|
D|-7-7-7-7-7-7-7-7-7-7-7-7-7-7-7-7-0-0---------------------------------------|


Repeat Chorus: (Start on the second chord)




                     

                                   GUITAR 2 
                               ----------------
Intro X2
e|---------------------------------------------------------------------------| 
B|---------------------------------------------------------------------------|
G|---0---2---0---2---0---2---0----0---2---0---3---2---0----------------------|
D|-0---0---0---0---0---0---0------------------------------3------------------|
A|------------------------------1---1---1---1---1---1---1--------------------|
D|---------------------------------------------------------------------------|


Intro Cont'd  X2
e|---------------------------------------------------------------------------| 
B|---------------------------------------------------------------------------|
G|-12-12-14-12-14-12-14-12-12-12-12-12-14-12-15-14-12-10--10--10-------------|
D|---------------------------------------------------------------------------|
A|-10-10-12-10-12-10-12-10-10-10-10-10-12-10-13-12-10-8---8---8--------------|
D|---------------------------------------------------------------------------|


Verse: "I think I'm breaking out.." (It's hard to hear but just do some picking
stuff with this chord)
e|-5-------------------------------------------------------------------------|
B|-6-------------------------------------------------------------------------|
G|-7-------------------------------------------------------------------------|
D|-7-------------------------------------------------------------------------|
A|-5-------------------------------------------------------------------------|
D|---------------------------------------------------------------------------|


Verse Cont'd
e|---------------------------------------------------------------------------|
B|---------------------------------------------------------------------------|
G|---------------------------------------------------------------------------|
D|-3-3-3-3-3-3-2-2-2-2-2-2---------------------------------------------------|
A|-3-3-3-3-3-3-3-3-3-3-3-3---------------------------------------------------|
D|-3-3-3-3-3-3-2-2-2-2-2-2---------------------------------------------------|


Chorus: (Same as Guitar 1)


Repeat second Part of Intro


Repeat Verse


Pre-Chorus: (Same as Guitar 1)


Chorus: (Same as Guitar 1)


Bridge: ( It's hard to make out what he's playin', but I think it goes like this)   X5
e|-----5----------5-----------5--8-----5-5--8--------------------------------| 
B|-------5-6--------5-6-------------6----------------------------------------|
G|--7---------7-7--------7-7-------------------------------------------------|
D|---------------------------------------------------------------------------|
A|---------------------------------------------------------------------------|
D|---------------------------------------------------------------------------|


Breakdown:
e|---------------------------------------------------------------------------|
B|---------------------------------------------------------------------------|
G|-7-7-7-7-9-9-9-9-10-10-10-10-12-12-12-12-12--------------------------------|
D|---------------------------------------------------------------------------|
A|-5-5-5-5-7-7-7-7-8--8--8--8--10-10-10-10-10--------------------------------|
D|---------------------------------------------------------------------------|

e|---------------------------------------------------------------------------| X4
B|---------------------------------------------------------------------------|
G|---------------------------------------------------------------------------|
D|-7-7-7-7-7-7-7-7-7-7-7-7-7-7-7-7-------------------------------------------|
A|-7-7-7-7-7-7-7-7-7-7-7-7-7-7-7-7-------------------------------------------|
D|-7-7-7-7-7-7-7-7-7-7-7-7-7-7-7-7-------------------------------------------|


Breakdown Cont'd:
e|---------------------------------------------------------------------------|
B|---------------------------------------------------------------------------|
G|---------------------------------------------------------------------------|
D|-7-7-7-7-7-7-7-7-7-7-7-7-7-7-7-7-0-0---------------------------------------|
A|-7-7-7-7-7-7-7-7-7-7-7-7-7-7-7-7-0-0---------------------------------------|
D|-7-7-7-7-7-7-7-7-7-7-7-7-7-7-7-7-0-0---------------------------------------|


Repeat Chorus: (Start on second chord)


-------------------------------------------------------------------------------
Thats it. This is a great song from the new album Oceans Avenue.
I'll be posting more songs off this album in the future. Enjoy.
Comments