Yellowcard - Way Away Chords & Tabs

 

Way Away Chords & Tabs

Yellowcard Chords & Tabs

Version: 1 Type: Bass Tab 0 ratings
1 star 2 stars 3 stars 4 stars 5 stars
comments

Way Away Bass Tab

-------------------------------------------------------------------------------
			     Way Away - Yellowcard
-------------------------------------------------------------------------------

Tabbed By : Brian
e-mail: guitar_freak7@msn.com

Tuning: (DADG)

Intro: X2
G|---------------------------------------------------------------------------| 
D|---------------------------------------------------------------------------|
A|---------------------------------------------------------------------------|
D|-0-0-0-0-0-0-0-0-0-0-0-0-0-5-5-5-8-8-8-8-8-8-8-8-8-8-8-8-8-3-3-3-----------|


Verse: "I think I'm Breaking out..."  X2
G|---------------------------------------------------------------------------|
D|---------------------------------------------------------------------------|
A|-5-5-5-5-5-5-5-5-5-5-5-5-5-5-5-5-3-3-3-3-3-3-3-3-3-3-3-3-3-3-3-------------|
D|---------------------------------------------------------------------------|

G|---------------------------------------------------------------------------| 
D|---------------------------------------------------------------------------|
A|-1-1-1-1-1-1-1-1-1-1-1-1-1-1-1-1--3-3-3-3-2-2-2-2--------------------------|
D|---------------------------------------------------------------------------|


Chorus: "Way Away Away from here I'll be"
G|---------------------------------------------------------------------------|
D|---------------------------------------------------------------------------|
A|---------------------------------------------------------------------------|
D|-0-0-0-0-0-0-0-0-0-0-0-0-3-3-3-3-3-3-3-3-3-3-3-3---------------------------|

G|---------------------------------------------------------------------------|
D|---------------------------------------------------------------------------|
A|---------------------------------------------------------------------------|
D|-8-8-8-8-8-8-8-8-8-8-8-8-8-8-7-7-7-7-7-7-7-7-7-7-7-7-----------------------|
[ Tab from: http://www.guitartabs.cc/tabs/y/yellowcard/way_away_btab.html ]
G|---------------------------------------------------------------------------|
D|---------------------------------------------------------------------------|
A|---------------------------------------------------------------------------|
D|-5-5-5-5-5-5-5-5-5-5h7p5-0-0-0-0-0-0-2-2-2-2-2-2---------------------------|

G|---------------------------------------------------------------------------|
D|---------------------------------------------------------------------------|
A|---------------------------------------------------------------------------|
D|-5-5-5-5-5-5-5-5-5-5h7p5-8-8-8-8-8-8-8-8-8-8-8-8---------------------------|


Repeat Intro


Repeat Chorus


Pre-Chorus:
G|---------------------------------------------------------------------------|
D|---------------------------------------------------------------------------|
A|---------------------------------------------------------------------------|
D|-8-8-8-8-8-8-8-8-8-8-8-8-8-8-8-8-------------------------------------------|


Repeat Chorus


Bridge:  X2
G|---------------------------------------------------------------------------| 
D|---------------------------------------------------------------------------|
A|---------------------------------------------------------------------------|
D|-0--8-5--0--10--8--8h10----------------------------------------------------|


Bridge Cont'd: "Letting out the noise inside of me..."  X3
G|---------------------------------------------------------------------------| 
D|---------------------------------------------------------------------------|
A|---------------------------------------------------------------------------|
D|-0---5h7p5--8---0----------------------------------------------------------|


Bridge Cont'd: "Letting out the noise inside of me..."  X4
G|---------------------------------------------------------------------------| 
D|---------------------------------------------------------------------------|
A|---------------------------------------------------------------------------|
D|-0-0-0-0-0-0-0-0-0-0-0-0-0-0-0-5-5-5-8-8-8-8-8-8-8-8-8-8-8-8-8-3-3-3-------|


Repeat Chorus: (Start on second note)
Comments