Yellowcard - View From Heaven Chords & Tabs

 

View From Heaven Chords & Tabs

Yellowcard Chords & Tabs

Version: 1 Type: Tab 0 ratings
1 star 2 stars 3 stars 4 stars 5 stars
comments

View From Heaven Tab

   
-------------------------------------------------------------------------------
			     Yellowcard - View from Heaven
-------------------------------------------------------------------------------
Yellowcard
Ocean Avenue
"View from Heaven"

Tabbed by : John Valte (J.V)
email: hanginwitastaple@hotmail.com


Gtr.1 - Standard
Gtr.2 - Standard
Gtr.3 - Standard(Violin and lead parts)

Gtr.1
Intro(repeat...with violin part too)	   (before violin) end ("I'm just so")
e|----3--3-3-3----3----3---3--3-3-3-----3----3--|-3-3-3-3-|-3-|------|
B|----3--3-3-3----3----3---3--3-3-3-----3----3--|-3-3-3-3-|-3-|------|
G|----0--0-0-0-0--0-0--0-0-0--0-0-0--0--0-0--0--|-0-0-0-0-|-0-|------|
D|-0--0--0-0-0-x--x-x--x-x-x--x-x-x--x--x-x--x--|-x-x-x-x-|-x-|------|
A|-x--x--x-x-x-3--3-2--2-0-0--0-0-0--3--3-2--2--|-3-3-2-0-|-3-|3/5-3-|
E|-3--3--3-3-3----------------------------------|---------|---|------|

Gtr.3
Violin intro
e|-------------------------------------------------------------|
B|-------------------------------------------------------------|
G|-------------------12-------12-------12-14-16-17-16-17-16-17-|
D|-9--10--11---12-14----12-14----12-14-------------------------|
A|-------------------------------------------------------------|
E|-------------------------------------------------------------|
cont'd
e|---------------------------------------------------------------------------|
B|-15h17p15\13h15p13\12h13p12\10h12p10-8v~------8---8-10-8-10-12-10-8-10-8---|
G|------------------------------------------7~----7------------------------7-|
D|---------------------------------------------------------------------------|
A|---------------------------------------------------------------------------|
E|---------------------------------------------------------------------------|
cont'd
e|----------------------------|
B|-8---8-10-8-7-7~--(7)h8v~---|
G|---7----------7~------------|
D|----------------------------|
A|----------------------------|
E|----------------------------|

Verse 1
Gtr.1
e|----3-3--3-3-3-------3-3--3-3-3-----0-0--0-0-0-----0-0--0-0-0-----0-0--0-0-0-|
B|----3-3--3-3-3-------3-3--3-3-3-----1-1--1-1-1-----1-1--1-1-1-----1-1--1-1-1-|
G|----0-0--0-0-0--0----0-0--0-0-0--0--0-0--0-0-0--0--0-0--0-0-0--0--0-0--0-0-0-|
D|-0--0-0--0-0-0--x----0-0--0-0-0--2--2-2--2-2-2--2--2-2--2-2-2--2--2-2--2-2-2-|
A|-x-------x-x-x--0h2--------------0--0-0--0-0-0--0--0-0--0-0-0--3--3-3--3-3-3-|
E|-3-------3-3-3---------------------------------------------------------------|
Gtr.2
e|----3-3--3-3-3------3-3--3-3-3-----0-0--0-0-0-----0-0--0-0-0-----0-0--0-0-0-|
B|----3-3--3-3-3------3-3--3-3-3-----1-1--1-1-1-----1-1--1-1-1-----1-1--1-1-1-|
G|----0-0--0-0-0------0-0--0-0-0--0--0-0--0-0-0--0--0-0--0-0-0--0--0-0--0-0-0-|
D|-0--0-0--0-0-0---0--0-0--0-0-0--2--2-2--2-2-2--2--2-2--2-2-2--2--2-2--2-2-2-|
A|-x-------x-x-x---x-------x-x-x--0--0-0--0-0-0--0--0-0--0-0-0--3--3-3--3-3-3-|
E|-3-------3-3-3---3-------3-3-3----------------------------------------------|
Gtr.1 cont'd
e|------0-0--0-0-0-----3-3--3-3-3-----3-3--3-3-3-|
B|------1-1--1-1-1-----3-3--3-3-3-----3-3--3-3-3-|
G|-0----0-0--0-0-0-----0-0--0-0-0--0--0-0--0-0-0-|
D|-0h2--2-2--2-2-2--0--0-0--0-0-0--0--0-0--0-0-0-|
A|-3----3-3--3-3-3--x-------x-x-x----------------|
E|------------------3-------3-3-3----------------|
Gtr.2 cont'd
e|-----0-0--0-0-0----3-3--3-3-3-----3-3--3-3-3-|
B|-----1-1--1-1-1----3-3--3-3-3-----3-3--3-3-3-|
G|--0--0-0--0-0-0----0-0--0-0-0-----0-0--0-0-0-|
D|--2--2-2--2-2-2-0--0-0--0-0-0--0--0-0--0-0-0-|
A|--3--3-3--3-3-3-x-------x-x-x--x-------x-x-x-|
E|----------------3-------3-3-3--3-------3-3-3-|

Gtr.3
Lead Riff (Gtr.1 plays intro with this)
e|-------------------------------------------------------------------|
B|-8p7-5---5---------------------------------------------------------|
G|-------7---7-5-4-5-4-2-4-2p0---------0-----0-2p0-4-x-5-x-4h5p4-2p0-|
D|-----------------------------2p0-0h2---0h2-------------------------|
A|-------------------------------------------------------------------|
E|-------------------------------------------------------------------|

e|----------------------------------------------------------------3~|
B|-8p7-5---5------------------------------------------5--5--3-----x-|
G|-------7---7-5-4-5-4-2-4-2p0---------0-----0--------7--7--5--4--4~|
D|-----------------------------2p0-0h2---0h2---2p0------------------|
A|------------------------------------------------------------------|
E|------------------------------------------------------------------|

Gtrs.1 and 2 Play Verse 1

End verse 1 with
("...gone")
e|-0~----------2~-|
B|-3~----------3~-|
G|-0~----------2~-|
D|-x-----------0~-|
A|-3~-------------|
E|----------------|

Chorus(strumming up and down)
Gtr.1
      4x                2x                 2x
e|-3-3-3-3-3-3-3-3-|-0-0-0-0-0-0-0-0-|-3-3-3-3-3-3-3-3-|
B|-3-3-3-3-3-3-3-3-|-0-0-0-0-0-0-0-0-|-3-3-3-3-3-3-3-3-|
G|-0-0-0-0-0-0-0-0-|-0-0-0-0-0-0-0-0-|-0-0-0-0-0-0-0-0-|
D|-----------------|-----------------|-----------------|
A|-----------------|-----------------|-----------------|
E|-----------------|-----------------|-----------------|
Gtr.2
     2x                  2x                 2x              2x
e|-3-3-3-3-3-3-3-3-|-3-3-3-3-3-3-3-3-|-0-0-0-0-0-0-0-0-|-3-3-3-3-3-3-3-3-|
B|-3-3-3-3-3-3-3-3-|-3-3-3-3-3-3-3-3-|-0-0-0-0-0-0-0-0-|-3-3-3-3-3-3-3-3-|
G|-0-0-0-0-0-0-0-0-|-0-0-0-0-0-0-0-0-|-0-0-0-0-0-0-0-0-|-0-0-0-0-0-0-0-0-|
D|-0-0-0-0-0-0-0-0-|-x-x-x-x-x-x-x-x-|-x-x-x-x-x-x-x-x-|-x-x-x-x-x-x-x-x-|
A|-----------------|-x-x-x-x-x-x-x-x-|-2-2-2-2-2-2-2-2-|-x-x-x-x-x-x-x-x-|
E|-----------------|-3-3-3-3-3-3-3-3-|-----------------|-3-3-3-3-3-3-3-3-|
[ Tab from: http://www.guitartabs.cc/tabs/y/yellowcard/view_from_heaven_tab.html ]
Gtr.3
Violin intro w/ Variation(play with intro..ending with "Before Violin" part))
e|-------------------------------------------------------------|
B|-------------------------------------------------------------|
G|-------------------12-------12-------12-14-16-17-16-17-16-17-|
D|-9--10--11---12-14----12-14----12-14-------------------------|
A|-------------------------------------------------------------|
E|-------------------------------------------------------------|
cont'd
e|----------------------------------------------------------------------------|
B|-15h17p15\13h15p13\12h13p12\10h12p10-8v~------8---8-10-8-10-12-10-8-10-8-10-|
G|------------------------------------------7~----7---------------------------|
D|----------------------------------------------------------------------------|
A|----------------------------------------------------------------------------|
E|----------------------------------------------------------------------------|
cont'd
e|------------------------------------|
B|-12-----12-13-12-10-12~---13-15-----|
G|---------------------------------12~|
D|----12------------------------------|
A|------------------------------------|
E|------------------------------------|

Verse 2 ("..fire")
Gtr.1
e|-3~|--0~|--0~|----3-3--3-3-3-----3-3--3-3-3-|
B|-3~|--1~|--1~|----3-3--3-3-3-----3-3--3-3-3-|
G|-0~|--0~|--0~|----0-0--0-0-0--0--0-0--0-0-0-|
D|-0~|--2~|--2~|-0--0-0--0-0-0--0--0-0--0-0-0-|
A|-x-|--0~|--3~|-x-------x-x-x----------------|
E|-3~|----|----|-3-------3-3-3----------------|
Gtr.2
e|-3~|--0~|--0~|----3-3--3-3-3-----3-3--3-3-3-|
B|-3~|--1~|--1~|----3-3--3-3-3-----3-3--3-3-3-|
G|-0~|--0~|--0~|----0-0--0-0-0-----0-0--0-0-0-|
D|-0~|--2~|--2~|-0--0-0--0-0-0--0--0-0--0-0-0-|
A|-x-|--0~|--3~|-x-------x-x-x--x--x-x--x-x-x-|
E|-3~|----|----|-3-------3-3-3--3--3-3--3-3-3-|

Gtrs. 1 and 2 Play Verse 1

Gtr.3
Violin part (figure out timing)("..I only need one more day..")
e|-------|-----------------------|------------|-------------------------|
B|-------|--------12-13-12-------|-15------15-|-13-12----12-------------|
G|-12----|--12-14----------14-12-|----1212----|-------14----14-12-11-12~|
D|----12-|-----------------------|------------|-------------------------|
A|-------|-----------------------|------------|-------------------------|
E|-------|-----------------------|------------|-------------------------|

End verse with
("..you too..")
e|-0~----------2~-|
B|-3~----------3~-|
G|-0~----------2~-|
D|-x-----------0~-|
A|-3~-------------|
E|----------------|

Gtrs. 1 and 2 Play Chorus

Break part
Gtr.3										
e|15-15-15-15-15-15-|17-17-17-17-17-17-|-15-15-15-15-15-15-|-15-15-15-15-15-15-|
B|15-15-15-15-15-15-|15-15-15-15-15-15-|-15-15-15-15-15-15-|-15-15-15-15-15-15-|
G|------------------|------------------|-------------------|-------------------|
D|------------------|------------------|-------------------|-------------------|
A|------------------|------------------|-------------------|-------------------|
E|------------------|------------------|-------------------|-------------------
Gtr.1										
e|0--0--0--0--0--0-|-2--2--2--2--2--2-|--3--3--3--3--3--3-|--3--3--3--3--3--3--|
B|0--0--0--0--0--0-|-3--3--3--3--3--3-|--3--3--3--3--3--3-|--3--3--3--3--3--3--|
G|0--0--0--0--0--0-|-2--2--2--2--2--2-|--0--0--0--0--0--0-|--0--0--0--0--0--0--|
D|x--x--x--x--x--x-|-0--0--0--0--0--0-|--0--0--0--0--0--0-|--0--0--0--0--0--0--|
A|2--2--2--2--2--2-|-0--0--0--0--0--0-|--x--x--x--x--x--x-|--x--x--x--x--x--x--|
E|-----------------|------------------|--3--3--3--3--3--3-|--3--3--3--3--3--3--|

End Break with these
|-15-|       |-3-|
|-15-|       |-3-|
|----|       |-0-|
|----|Gtr.3  |-0-|Gtr.1
|----|       |---|
|----|       |---|

Gtr.3
Violin after "goodbye.."
e|-14h15p14------------------------|
B|----------15~-----\13--12--------|
G|--------------------------14--12-|
D|---------------------------------|
A|---------------------------------|
E|---------------------------------|

Gtrs.1 and 2 play chorus

Gtr.3 comes in ("I hope that all is well in Heaven..")
(Listen to song to figure out)
e|-3-3-3-3-3-3-3-3-3-3-3-3-3-3-3-3-3-3-3-3-3-3-3-3-3-3-3-3-3-3-3-3-3-|
B|-3-3-3-3-3-3-3-3-3-3-3-3-3-3-3-3-3-3-3-3-3-3-3-3-3-3-3-3-3-3-3-3-3-|
G|-0-0-0-0-0-0-0-0-0-0-0-0-0-0-0-0-0-0-0-0-0-0-0-0-0-0-0-0-0-0-0-0-0-|
d|-0-0-0-0-0-0-0-0-0-x-x-x-x-x-x-x-x-x-x-x-x-x-x-x-x-x-x-x-x-x-x-x-x-|
A|-x-x-x-x-x-x-x-x-x-3-------2-------0---------------2-------3-------|
E|-3-----------------------------------------------------------------|
cont'd
e|-0-0-0-0-0-0-0-0-0-0-0-0-0-0-0-0-3-3-3-3-3-3-3-3-3-3-3-3-3-3-3-3-|
B|-0-0-0-0-0-0-0-0-0-0-0-0-0-0-0-0-3-3-3-3-3-3-3-3-3-3-3-3-3-3-3-3-|
G|-0-0-0-0-0-0-0-0-0-0-0-0-0-0-0-0-0-0-0-0-0-0-0-0-0-0-0-0-0-0-0-0-|
d|-x-x-x-x-x-x-x-x-x-x-x-x-x-x-x-x-x-x-x-x-x-x-x-x-x-x-x-x-x-x-x-x-|
A|-x-x-x-x-x-x-x-x-2-------0-------3---------------3-------2-------|
E|-0-------------------------------3-------------------------------|
cont'd
3-3-3-3-3-3-3-3-|
3-3-3-3-3-3-3-3-|
0-0-0-0-0-0-0-0-|
0-0-0-0-0-0-0-0-|
x-x-x-x-x-x-x-x-|
3---------------|
cont'd
e|-3-3-3-3-3-3-3-3-3-3-3-3-3-3-3-3-3-3-3-3-3-3-3-3-0-0-0-0-0-0-0-0-|
B|-3-3-3-3-3-3-3-3-3-3-3-3-3-3-3-3-3-3-3-3-3-3-3-3-0-0-0-0-0-0-0-0-|
G|-0-0-0-0-0-0-0-0-0-0-0-0-0-0-0-0-0-0-0-0-0-0-0-0-0-0-0-0-0-0-0-0-|
d|-x-x-x-x-x-x-x-x-x-x-x-x-x-x-x-x-x-x-x-x-x-x-x-x-x-x-x-x-x-x-x-x-|
A|-3-------2-------0---------------2-------3-------x-x-x-x-x-x-x-x-|
E|-------------------------------------------------0---------------|
cont'd
e|-0-0-0-0-0-0-0-0-3-3-3-3-3-3-3-3-3-3-3-3-3-3-3-3-|
B|-0-0-0-0-0-0-0-0-3-3-3-3-3-3-3-3-3-3-3-3-3-3-3-3-|
G|-0-0-0-0-0-0-0-0-0-0-0-0-0-0-0-0-0-0-0-0-0-0-0-0-|
d|-x-x-x-x-x-x-x-x-x-x-x-x-x-x-x-x-x-x-x-x-x-x-x-x-|
A|-2-------0-------3-3-3-3-3-3-3-3-3-3-3-3-3-3-3-3-|
E|-----------------3-------------------------------|

Ending
Gtr.3										
e|15-15-15-15-15-15-|17-17-17-17-17-17-|-15-15-15-15-15-15-|-15-15-15-15-15-15-|
B|15-15-15-15-15-15-|15-15-15-15-15-15-|-15-15-15-15-15-15-|-15-15-15-15-15-15-|
G|------------------|------------------|-------------------|-------------------|
D|------------------|------------------|-------------------|-------------------|
A|------------------|------------------|-------------------|-------------------|
E|------------------|------------------|-------------------|-------------------
Gtr.1										
e|-0--0--0--0--0--0-|-2--2--2--2--2--2-|-3--3--3--3--3--3-|--3--3--3--3--3--3--|
B|-0--0--0--0--0--0-|-3--3--3--3--3--3-|-3--3--3--3--3--3-|--3--3--3--3--3--3--|
G|-0--0--0--0--0--0-|-2--2--2--2--2--2-|-0--0--0--0--0--0-|--0--0--0--0--0--0--|
D|-x--x--x--x--x--x-|-0--0--0--0--0--0-|-0--0--0--0--0--0-|--0--0--0--0--0--0--|
A|-2--2--2--2--2--2-|-0--0--0--0--0--0-|-x--x--x--x--x--x-|--x--x--x--x--x--x--|
E|------------------|------------------|-3--3--3--3--3--3-|--3--3--3--3--3--3--|

End Break with these
|-15-|       |-3-|
|-15-|       |-3-|
|----|       |-0-|
|----|Gtr.3  |-0-|Gtr.1
|----|       |---|
|----|       |---|

Gtr.3
Violin Ending
e|-14h15p14-----|
B|----------15~-|
G|--------------|
D|--------------|
A|--------------|
E|--------------|

Done, finally..I've only played for a year and I'm 14 so it wont be perfect
It'll be the best you find though..if you find anything else...unless
its from Yellowcard themselves of course...Comments, Requests, Questions,
Corrections? email me at hanginwitastaple@hotmail.com...
Comments