Yellowcard - View From Heaven Chords & Tabs

 

View From Heaven Chords & Tabs

Yellowcard Chords & Tabs

Version: 1 Type: Bass Tab 0 ratings
1 star 2 stars 3 stars 4 stars 5 stars
comments

View From Heaven Bass Tab

   
View From Heaven
Tabbed by : Fake a.k.a Link
Tuning : G D A E
For any correction, plz e-mail me at phlowiz@hotmail.com

This is my first tab so...

Riff 1 ( ten, fifteen, fourteen )
G|------------|
D|------------|
A|-10---15-14-| x7
E|------------|

G|------------|
D|------------|
A|-10---15----|
E|------------|

Riff 2 ( tens, twelves, fifteens, tens )
G|---------------------------------------------------------------------|
D|---------------------------------------------------------------------|
A|-1010101010101010-1212121212121212-1515151515151515-1010101010101010-|
E|---------------------------------------------------------------------|
[ Tab from: http://www.guitartabs.cc/tabs/y/yellowcard/view_from_heaven_btab.html ]
Riff 3 ( ten, fifteens, fourteen )
G|----------|
D|----------|
A|-10-15-14-| x3
E|----------|

G|----------|
D|----------|
A|-15151515-|
E|----------|

Riff 4 ( fifteen, seventeen )
G|-----------|
D|-----------|
A|-15-----17-|
E|-----------|

Riff 5
G|-------------------------------------|
D|-------------------------------------|
A|-66666666-33333333-77777777-33333333-|
E|-------------------------------------|

Riff 6
G|-------------|
D|-------------|
A|-7-7-5-5-3-3-| x2
E|-------------|

G|-------------|
D|-------------|
A|-7-7-5-53~---|
E|-------------|

Riff 7 -i really wish I got to say goodbye...(on cymbal)-
G|---------|
D|---------|
A|-5~--7-8-|
E|---------|

Order
Riff 1
Riff 2 x2
Riff 3
Riff 2 x2
Riff 4
Riff 5 x2
Riff 3
Riff 2 x2
Riff 4
Riff 5 x2
Riff 6
Riif 7
Riff 5 x4
Riff 6

My first tab. Plz rate!!!
Comments