Yellowcard - Two Weeks From Twenty Chords & Tabs

 

Two Weeks From Twenty Chords & Tabs

Yellowcard Chords & Tabs

Version: 2 Type: Tab

Two Weeks From Twenty Tab

This might be completely wrong, but it's the way I play it.
And this is my first tab so I'm proud of it.


Verse:
[ Tab from: http://www.guitartabs.cc/tabs/y/yellowcard/two_weeks_from_twenty_tab_ver_2.html ]
"Jimmy wasn't really popular"
-|--------------|-
-|--------------|-
-|--------4--7--|-
-|--7--4--4--7--|-
-|--7--4--2--5--|-
-|--5--2--2--5--|-


Chorus:
"And then you hear them say"
-|-------------------------------|-
-|-------------------------------|-
-|--------5--3-------------------|-
-|--7--5--5--3----7-6-5-4--7--5--|-
-|--7--5--3--1----7-6-5-4--7--5--|-
-|--5--3--3--1----5-4-3-2--5--3--|-