Yellowcard - Two Weeks From Twenty Chords & Tabs

 

Two Weeks From Twenty Chords & Tabs

Yellowcard Chords & Tabs

Version: 1 Type: Tab

Two Weeks From Twenty Tab

Song: Two Weeks From Twenty
Band: Yellowcard
Album: Lights And Sounds

This is just the solo, cause I don't really like the whole song

e|---------------------------------------------------------------------|
B|----------------------------------------------------13--13h15p13-----|
G|-12/14~-12h14p12--------------------------------14----------------14-|
D|-----------------12h14~--12/14-12------------------------------------|
A|----------------------------------/14-12-10/12-----------------------|
E|---------------------------------------------------------------------|
[ Tab from: http://www.guitartabs.cc/tabs/y/yellowcard/two_weeks_from_twenty_tab.html ]
e|------------------------------------------------------------------------|
B|-12h13h12---------------15~-------15--15/18-16--16----16-18b20r18-16----|
G|----------12/14~--14h16-----15/16-------------17----17---------------17-|
D|------------------------------------------------------------------------|
A|------------------------------------------------------------------------|
E|------------------------------------------------------------------------|

e|---------------------------------------------------------|
B|-18-15--15b--18-14----------------------15--17--17p16p15-|
G|-x----15----------15---------------17-18-----------------|
D|---------------------17--17-18-19------------------------|
A|---------------------------------------------------------|
E|---------------------------------------------------------|

e|-----------------------17-------------------------------|
B|-------12/15-18-15-13-----18p15-------------------------|
G|-15\14--------------------------15----------------------|
D|----------------------------------17~slowly slide to 19-|
A|--------------------------------------------------------|
E|--------------------------------------------------------|

Hope it's right