Yellowcard - Sure Shot Chords & Tabs

 

Sure Shot Chords & Tabs

Yellowcard Chords & Tabs

Version: 1 Type: Tab 0 ratings
1 star 2 stars 3 stars 4 stars 5 stars
comments

Sure Shot Tab

   
...  - palm muteage
~    - ring outage
/or\ - slideage 
h    - hammer onage
p    - pull offage

7x
7x   - mute strings after strumage
5x

x x
x x  - scratchage
x x



GUITAR 1'S PARTS:
-----------------
Intro:                       
e|---------------------------------------------------------------------------|
B|---------------------------------------------------------------------------|
G|-------------6-6-6-6-6-6-6-6-6-6-6-6---------9---------------9-------------|
D|-------------6-6-6-6-6-6-6-6-6-6-6-6-----9-------9-------9-------9-------9-|
A|-------------4-4-4-4-4-4-4-4-4-4-4-4-6-6---6---6---6-6-6---6---6---6-7-7---|
D|-pick-slide----------------------------------------------------------------|
                                       ...   .   .   .....   .   .   .....
Intro Con't
e|---------------------------------------------------------------------------|
B|-------------------9-------------------------------------------------------|
G|---9-----------------------4-4-4-4-4-4-4-4-4-4-4-4-------------------------|
D|-------9-------9-------9---4-4-4-4-4-4-4-4-4-4-4-4-------------------------|
A|-7---7---7-7-7---7---7---7-2-2-2-2-2-2-2-2-2-2-2-2-------------------------|
D|---------------------------------------------------------------------------|
   .   .   .....   .   .   .
   

Verse:  "Can I face this day..."
e|---------------------------------------------------------------------------|
B|---------------------------------------------------------------------------|
G|2~---------6-6-6-6-8-4~-----------------------6-6-6-6x--6-6-6-6x--8-8-8-8x-|
D|2~---------6-6-6-6-8-4~---2-2-2-2x--2-2-2-2x--6-6-6-6x--6-6-6-6x--9-9-9-9x-|
A|0~---------4-4-4-4-6-2~---2-2-2-2x--2-2-2-2x--4-4-4-4x--4-4-4-4x--6-6-6-6x-|
D|--------------------------2-2-2-2x--2-2-2-2x-------------------------------|

Verse Cont'd:
e|---------------------------------------------------------------------------|
B|---------------------------------------------------------------------------|
G|8-8-8-8x--9-9-9-9-9-9-9-9-9-9-9-9-2-2-2-2-2-2-2-2-2-2-2-2-4-4-4-4-4-4-4-4--|
D|9-9-9-9x--9-9-9-9-9-9-9-9-9-9-9-9-2-2-2-2-2-2-2-2-2-2-2-2-4-4-4-4-4-4-4-4--|
A|6-6-6-6x--7-7-7-7-7-7-7-7-7-7-7-7-0-0-0-0-0-0-0-0-0-0-0-0-2-2-2-2-2-2-2-2--|
D|---------------------------------------------------------------------------|

Verse Cont'd:
e|---------------------------------------------------------------------------|
B|---------------------------------------------------------------------------|
G|4-4-4-4-6-6-6-6-6-6-4-4-4-4-4-4-2-2-2-2-2-2-2-2-2-2-2-2--2-2-2-2-2x--------|
D|4-4-4-4-6-6-6-6-6-6-4-4-4-4-4-4-2-2-2-2-2-2-2-2-2-2-2-2--2-2-2-2-2x--------|
A|2-2-2-2-4-4-4-4-4-4-2-2-2-2-2-2-0-0-0-0-0-0-0-0-0-0-0-0--0-0-0-0-0x--------|
D|---------------------------------------------------------------------------|

Chorus:  "I've got a sure shot..."
e|---------------------------------------------------------------------------|
B|---------------------------------------------------------------------------|
G|------------4-4-x-x-x-x-2-2-x-x-x-x-----------------------2-2-x-x-x-x-6-6--|
D|2-2-x-x-x-x-4-4-x-x-x-x-2-2-x-x-x-x---6-----4-2-2-x-x-x-x-2-2-x-x-x-x-6-6--|
A|2-2-x-x-x-x-2-2-x-x-x-x-0-0-x-x-x-x-4---2-2---2-2-x-x-x-x-0-0-x-x-x-x-4-4--|
D|2-2-x-x-x-x-----------------------------------2-2-x-x-x-x------------------|

Chorus Cont'd:
e|---------------------------------------------------------------------------|
B|---------------------------------------------------------------------------|
G|x-x-x-x-4-4---------------------4-4-x-x-x-x-2-2-x-x-x-x--------------------|
D|x-x-x-x-4-4---------2-2-x-x-x-x-4-4-x-x-x-x-2-2-x-x-x-x---6-----4-2-2-x-x--|
A|x-x-x-x-2-2-2h4p2p0-2-2-x-x-x-x-2-2-x-x-x-x-0-0-x-x-x-x-4---2-2---2-2-x-x--|
D|--------------------2-2-x-x-x-x-----------------------------------2-2-x-x--|

Chorus Cont'd:
e|---------------------------------------------------------------------------|
B|---------------------------------------------------------------------------|
G|----2-2-x-x-x-x-6-6-x-x-x-x-4-4--------------------------------------------|
D|x-x-2-2-x-x-x-x-6-6-x-x-x-x-4-4--------------------------------------------|
A|x-x-0-0-x-x-x-x-4-4-x-x-x-x-2-2-2h4p2--------------------------------------|
D|x-x------------------------------------------------------------------------|

Interlude:  (2x)
e|---------------------------------------------------------------------------|
B|---------------------------------------------------------------------------|
G|2-2-2-2-2-2-2-2-2-2-2-2-2-2-2-2--------------------------------------------|
D|2-2-2-2-2-2-2-2-2-2-2-2-2-2-2-2--------------------------------------------|
A|0-0-0-0-0-0-0-0-0-0-0-0-0-0-0-0--------------------------------------------|
D|---------------------------------------------------------------------------|

2nd Verse:  "Can I face this year..."
e|---------------------------------------------------------------------------|
B|---------------------------------------------------------------------------|
G|2~----6-6-6-6-6-6-2-2-2-2-2-2----------------------------------------------|
D|2~----6-6-6-6-6-6-2-2-2-2-2-2---------------------------------2-2-2-2-2-2-2|
A|0~----4-4-4-4-4-4-0-0-0-0-0-0-2-2-2-2-2-2-2-2-2-2-2-2-2-2-2-2-4-4-4-4-4-4-4|
D|------------------------------2-2-2-2-2-2-2-2-2-2-2-2-2-2-2-2--------------|
                                .............................................

2nd Verse Cont'd:
e|---------------------------------------------------------------------------|
B|---------------------------------------------------------------------------|
G|------------------4-4-4-4-4-4-4-4-4-4-4-4-4-4-4-4-4-4-4-4-4-4-4-4-4-4-4-4-4|
D|2-1-1-1-1-1-1-1-1-1-1-1-1-1-1-1-1-1-1-1-1-1-1-1-1-2-2-2-2-2-2-2-2-2-2-2-2-2|
A|4-4-4-4-4-4-4-4-4----------------------------------------------------------|
D|---------------------------------------------------------------------------|
  ...........................................................................

2nd Verse Cont'd:
e|---------------------------------------------------------------------------|
B|---------------------------------------------------------------------------|
G|2-2-2-2-2-2-2-2-2-2-2-2-4-4-4-4-4-4-4-4-4-4-4-4-6-6-6-6-6-4-4-4-4-4-4-2-2-2|
D|2-2-2-2-2-2-2-2-2-2-2-2-4-4-4-4-4-4-4-4-4-4-4-4-6-6-6-6-6-4-4-4-4-4-4-2-2-2|
A|0-0-0-0-0-0-0-0-0-0-0-0-2-2-2-2-2-2-2-2-2-2-2-2-4-4-4-4-4-2-2-2-2-2-2-0-0-0|
D|---------------------------------------------------------------------------|
  ...   ...   ...   ...   ...   ...   ...   ...

2nd Verse Cont'd:
e|---------------------------------------------------------------------------|
B|---------------------------------------------------------------------------|
G|2-2-2-2-2-2-2-2-2-2-2-2-2--2-2-2-2-2x--------------------------------------|
D|2-2-2-2-2-2-2-2-2-2-2-2-2--2-2-2-2-2x--------------------------------------|
A|0-0-0-0-0-0-0-0-0-0-0-0-0--0-0-0-0-0x--------------------------------------|
D|---------------------------------------------------------------------------|

Build Up:  "My mom and dad..."
e|---------------------------------------------------------------------------|
B|---------------------------------------------------------------------------|
G|----------------------------4-4--4-4-4--4-4-4--4-4-4--4--------------------|
D|2-2--2-2-2--2-2-2--2-2-2--2-4-4--4-4-4--4-4-4--4-4-4--4-2-2--2-2-2--2-2-2--|
A|2-2--2-2-2--2-2-2--2-2-2--2-2-2--2-2-2--2-2-2--2-2-2--2-2-2--2-2-2--2-2-2--|
D|2-2--2-2-2--2-2-2--2-2-2--2-----------------------------2-2--2-2-2--2-2-2--|

Build Up:
e|---------------------------------------------------------------------------|
B|---------------------------------------------------------------------------|
G|---------6-6--6-6-6--6-6-6--6------------------------------4-4-4-4-4-4-4-4-|
D|2-2-2--2-6-6--6-6-6--6-6-6--6------4-4-4-4-4-4-4-4-4-4-4-4-4-4-4-4-4-4-4-4-|
A|2-2-2--2-4-4--4-4-4--4-4-4--4-7-6--4-4-4-4-4-4-4-4-4-4-4-4-2-2-2-2-2-2-2-2-|
D|2-2-2--2----------------------7-6--4-4-4-4-4-4-4-4-4-4-4-4-----------------|

Build Up:
e|---------------------------------------------------------------------------|
B|----------------------------------1~---------------------------------------|
G|4-4-4-4-4-2-2-2-2-2-2-2-2-2-2-2-2-2~---------------------------------------|
D|4-4-4-4-4-2-2-2-2-2-2-2-2-2-2-2-2-2~---------------------------------------|
A|2-2-2-2-2-0-0-0-0-0-0-0-0-0-0-0-0-0~---------------------------------------|
D|---------------------------------------------------------------------------|

Repeat Chorus 2x

Outro:
e|---------------------------------------------------------------------------|
B|---------------------------------------------------------------------------|
G|------------------------4-4-4-4-4-4-4-4-4-4-4-4-2-2-2-2-2-2-2-2-2-2-2-2----|
D|2-2-2-2-2-2-2-2-2-2-2-2-4-4-4-4-4-4-4-4-4-4-4-4-2-2-2-2-2-2-2-2-2-2-2-2----|
A|2-2-2-2-2-2-2-2-2-2-2-2-2-2-2-2-2-2-2-2-2-2-2-2-0-0-0-0-0-0-0-0-0-0-0-0----|
D|2-2-2-2-2-2-2-2-2-2-2-2----------------------------------------------------|

Outro Cont'd:
e|---------------------------------------------------------------------------|
B|---------------------------------------------------------------------------|
G|---------------------------------------------------------------------------|
D|--6-----6---4-----4--------------------------------------------------------|
A|4---4-4---2---2-2----------------------------------------------------------|
D|---------------------------------------------------------------------------|
[ Tab from: http://www.guitartabs.cc/tabs/y/yellowcard/sure_shot_tab.html ]
Outro Cont'd:
e|---------------------------------------------------------------------------|
B|---------------------------------------------------------------------------|
G|------------------------4-4-4-4-4-4-4-4-4-4-4-4-2-2-2-2-2-2-2-2-2-2-2-2----|
D|2-2-2-2-2-2-2-2-2-2-2-2-4-4-4-4-4-4-4-4-4-4-4-4-2-2-2-2-2-2-2-2-2-2-2-2----|
A|2-2-2-2-2-2-2-2-2-2-2-2-2-2-2-2-2-2-2-2-2-2-2-2-0-0-0-0-0-0-0-0-0-0-0-0----|
D|2-2-2-2-2-2-2-2-2-2-2-2----------------------------------------------------|

Outro Cont'd:
e|---------------------------------------------------------------------------|
B|---------------------------------------------------------------------------|
G|---------------------------------------------------------------------------|
D|----6-------4--------------------------------------------------------------|
A|4-4---4-2-2---2-0~---------------------------------------------------------|
D|---------------------------------------------------------------------------|



-----------------
GUITAR 2'S PARTS:
-----------------
Intro:  (3x)                       Last Time:
e|0-0-0-0-0-0-0-0-0-0-0-0-0-0-0-0-|0-0-0-0-0-0-0-0-0-0-0-0-0-0-0-0-----------|
B|5-5-5-5-4-4-0-0-2-2-2-2-0-0-0-0-|5-5-5-5-4-4-4-4-9-9-9-9-7-7-7-7-----------|
G|--------------------------------|------------------------------------------|
D|--------------------------------|------------------------------------------|
A|--------------------------------|------------------------------------------|
D|--------------------------------|------------------------------------------|

Intro Cont'd:
e|0-0-0-0-0-0-0-0-0-0-0-0-0-0-0-0--------------------------------------------|
B|5-5-5-5-4-4-0-0-2-2-2-2-0-0-0-0-----7---7---0-------7---7---0-------9---7--|
G|--------------------------------9-9---9---9---9-9-9---9---9---9-9-9---9----|
D|---------------------------------------------------------------------------|
A|---------------------------------------------------------------------------|
D|---------------------------------------------------------------------------|
                                  ...   .   .   .....   .   .   .....   .
End of Intro:
e|-----------------------0-0-0-0-0-0-0-0-0~----------------------------------|
B|---0-------9---7---0---5-5-5-5-4-4-2-2-0~----------------------------------|
G|-9---9-9-9---9---9---9-----------------------------------------------------|
D|---------------------------------------------------------------------------|
A|---------------------------------------------------------------------------|
D|---------------------------------------------------------------------------|
   .   .....   .   .   .


Verse:  "Can I face this day..."
(on the first chord, it sounds like single note picking
 with all those notes but we can't figure it out.)
e|---------------------------------------------------------------------------|
B|-5~------------------------------------------------------------------------|
G|-2~------9-9-9-9-11-8~----------------------9-9-9-9x--8-8-8-8x-11-11-11-11x|
D|-2~---------------------2-2-2-2x--2-2-2-2x----------------------9--9--9--9x|
A|-0~------7-7-7-7--9-6~--2-2-2-2x--2-2-2-2x--7-7-7-7x--6-6-6-6x-------------|
D|------------------------2-2-2-2x--2-2-2-2x---------------------------------|

Verse Cont'd:
e|---------------------------------------------------------------------------|
B|---------------------------------------------------------------------------|
G|11-11-11-11x-9-9-9-9-9-9-9-9-9-9-9-9-2-2-2-2-2-2-2-2-2-2-2-2-4-4-4-4-4-4-4-|
D|-9--9--9--9x-9-9-9-9-9-9-9-9-9-9-9-9-2-2-2-2-2-2-2-2-2-2-2-2-4-4-4-4-4-4-4-|
A|-------------7-7-7-7-7-7-7-7-7-7-7-7-0-0-0-0-0-0-0-0-0-0-0-0-2-2-2-2-2-2-2-|
D|---------------------------------------------------------------------------|

Verse Cont'd:
e|---------------------------------------------------------------------------|
B|---------------------------------------------------------------------------|
G|4-4-4-4-4-6-6-6-6-6-6-8-8-8-8-8-8-9-9-8-8-9-9-8-8-9-9-8-8-9-9-8-8-9-9-8-8-9|
D|4-4-4-4-4------------------------------------------------------------------|
A|2-2-2-2-2-4-4-4-4-4-4-6-6-6-6-6-6-7-7-6-6-7-7-6-6-7-7-6-6-7-7-6-6-7-7-6-6-7|
D|---------------------------------------------------------------------------|

Chorus:  "I've got a sure shot..."
e|---------------------------------------------------------------------------|
B|---------------------------------------------------------------------------|
G|------------4-4-x-x-x-x-2-2-x-x-x-x-----------------------2-2-x-x-x-x-6-6--|
D|2-2-x-x-x-x-4-4-x-x-x-x-2-2-x-x-x-x---6-----4-2-2-x-x-x-x-2-2-x-x-x-x-6-6--|
A|2-2-x-x-x-x-2-2-x-x-x-x-0-0-x-x-x-x-4---2-2---2-2-x-x-x-x-0-0-x-x-x-x-4-4--|
D|2-2-x-x-x-x-----------------------------------2-2-x-x-x-x------------------|

Chorus Cont'd:
e|---------------------------------------------------------------------------|
B|---------------------------------------------------------------------------|
G|x-x-x-x-4-4-8/9\8/9-------------4-4-x-x-x-x-2-2-x-x-x-x--------------------|
D|x-x-x-x-4-4---------2-2-x-x-x-x-4-4-x-x-x-x-2-2-x-x-x-x---6-----4-2-2-x-x--|
A|x-x-x-x-2-2-6/7\6/7-2-2-x-x-x-x-2-2-x-x-x-x-0-0-x-x-x-x-4---2-2---2-2-x-x--|
D|--------------------2-2-x-x-x-x-----------------------------------2-2-x-x--|

Chorus Cont'd:
e|---------------------------------------------------------------------------|
B|---------------------------------------------------------------------------|
G|----2-2-x-x-x-x-6-6-x-x-x-x-4-4-8/9\8--------------------------------------|
D|x-x-2-2-x-x-x-x-6-6-x-x-x-x-4-4--------------------------------------------|
A|x-x-0-0-x-x-x-x-4-4-x-x-x-x-2-2-6/7\6--------------------------------------|
D|x-x------------------------------------------------------------------------|

Interlude:  (2x)
e|0-0-0-0-0-0-0-0-0-0-0-0-0-0-0-0-|
B|5-5-5-5-4-4-0-0-2-2-2-2-0-0-0-0-|
G|--------------------------------|
D|--------------------------------|
A|--------------------------------|
D|--------------------------------|

2nd Verse:  "Can I face this year..."
e|---------------------------------------------------------------------------|
B|---------------------------------------------------------------------------|
G|2~----6-6-6-6-6-6-2-2-2-2-2-2----------------------------------------------|
D|2~----6-6-6-6-6-6-2-2-2-2-2-2---------------------------------2-2-2-2-2-2-2|
A|0~----4-4-4-4-4-4-0-0-0-0-0-0-2-2-2-2-2-2-2-2-2-2-2-2-2-2-2-2-4-4-4-4-4-4-4|
D|------------------------------2-2-2-2-2-2-2-2-2-2-2-2-2-2-2-2--------------|
                                .............................................

2nd Verse Cont'd:
e|---------------------------------------------------------------------------|
B|---------------------------------------------------------------------------|
G|------------------4-4-4-4-4-4-4-4-4-4-4-4-4-4-4-4-4-4-4-4-4-4-4-4-4-4-4-4-4|
D|2-1-1-1-1-1-1-1-1-1-1-1-1-1-1-1-1-1-1-1-1-1-1-1-1-2-2-2-2-2-2-2-2-2-2-2-2-2|
A|4-4-4-4-4-4-4-4-4----------------------------------------------------------|
D|---------------------------------------------------------------------------|
  ...........................................................................

2nd Verse Cont'd:
e|---------------------------------------------------------------------------|
B|---------------------------------------------------------------------------|
G|2-2-2-2-2-2-2-2-2-2-2-2-4-4-4-4-4-4-4-4-4-4-4-4-6-6-6-6-6-8-8-8-8-8-8-9-9--|
D|2-2-2-2-2-2-2-2-2-2-2-2-4-4-4-4-4-4-4-4-4-4-4-4----------------------------|
A|0-0-0-0-0-0-0-0-0-0-0-0-2-2-2-2-2-2-2-2-2-2-2-2-4-4-4-4-4-6-6-6-6-6-6-7-7--|
D|---------------------------------------------------------------------------|
  ...   ...   ...   ...   ...   ...   ...   ...

2nd Verse Cont'd:
e|---------------------------------------------------------------------------|
B|---------------------------------------------------------------------------|
G|-8-8-9-9-8-8-9-9-8-8-9-9-8-8-9-9-8-8-9x------------------------------------|
D|---------------------------------------------------------------------------|
A|-6-6-7-7-6-6-7-7-6-6-7-7-6-6-7-7-6-6-7x------------------------------------|
D|---------------------------------------------------------------------------|

Build Up:  "My mom and dad..."
e|---------------------------------------------------------------------------|
B|---------------------------------------------------------------------------|
G|----------------------------8-8--8-8-8--8-8-8--8-8-8--8--------------------|
D|2-2--2-2-2--2-2-2--2-2-2--2-----------------------------2-2--2-2-2--2-2-2--|
A|2-2--2-2-2--2-2-2--2-2-2--2-6-6--6-6-6--6-6-6--6-6-6--6-2-2--2-2-2--2-2-2--|
D|2-2--2-2-2--2-2-2--2-2-2--2-----------------------------2-2--2-2-2--2-2-2--|

Build Up:
e|---------------------------------------------------------------------------|
B|---------------------------------------------------------------------------|
G|---------13-13--13-13-13--13-13-13--11--9--9--------------------------4-4-4|
D|2-2-2--2--------------------------------------4-4-4-4-4-4-4-4-4-4-4-4-4-4-4|
A|2-2-2--2-11-11--11-11-11--11-11-11---9--7--7--4-4-4-4-4-4-4-4-4-4-4-4-2-2-2|
D|2-2-2--2--------------------------------------4-4-4-4-4-4-4-4-4-4-4-4------|

Build Up:
e|---------------------------------------------------------------------------|
B|---------------------------------------------------------------------------|
G|4-4-4-4-4-4-4-4-4-4-4-4-4-2-2-2-2-2-2-2-2-2-2-2-2-5-7-9-11-9~--------------|
D|4-4-4-4-4-4-4-4-4-4-4-4-4-2-2-2-2-2-2-2-2-2-2-2-2--------------------------|
A|2-2-2-2-2-2-2-2-2-2-2-2-2-0-0-0-0-0-0-0-0-0-0-0-0-3-5-7--9-7~--------------|
D|---------------------------------------------------------------------------|

Repeat Chorus 2x

Outro:
 Repeat Guitar 2 Interlude (7x)
 then play this-
e|-----4-------2---0~--------------------------------------------------------|
B|---5---5---4---4-0~--------------------------------------------------------|
G|-6-------4-------2~--------------------------------------------------------|
D|---------------------------------------------------------------------------|
A|---------------------------------------------------------------------------|
D|---------------------------------------------------------------------------|
Comments