Yellowcard - Space Travel Chords & Tabs

 

Space Travel Chords & Tabs

Yellowcard Chords & Tabs

Version: 4 Type: Tab

Space Travel Tab

ok guys this is da full song and is preety dam close to perfect correct me if it aint.

INTRO

---------------------------/---------------------------------|
--7-7-5-5-8-7-5-8-7-5------/-7-7-5-5-5-5-5-5-7~--------------|
---7-7-7-7---7-----7----X1-/--7-7-7-7-6-6-7-7----------------|
---------------------------/---------------------------------|
---------------------------/---------------------------------|
---------------------------/---------------------------------|

THEN BASS PLAYS THE VERSE

PRE CHORUS
-----------------------------------------------------------|
-----------------------------------------------------------|
----7777-XX----XX-6666-XX----------------------------------|
----7777-XX-77-XX-6666-XX-77------------X2-----------------|
----5555-XX-77-XX-4444-XX-77-------------------------------|
---------XX-77-XX------XX-77-------------------------------|

VERSE

---------------------------/-------------------------------|
--7-7-5-5-8-7-5-8-7-5------/-7-7-5-5-5-5-5-5-7~------------|
---7-7-7-7---7-----7-------/--7-7-7-7-6-6-7-7-----------X2-|
---------------------------/-------------------------------|
---------------------------/-------------------------------|
---------------------------/-------------------------------|

BACK TO PRE CHORUS

-----------------------------------------------------------|
-----------------------------------------------------------|
----7777-XX----XX-6666-XX----------------------------------|
----7777-XX-77-XX-6666-XX-77------------X2-----------------|
----5555-XX-77-XX-4444-XX-77-------------------------------|
---------XX-77-XX------XX-77-------------------------------|

CHORUS
 NOT EXACT STRUMMING
------------------------------------------------------------|
------------------------------------------------------------|
----77777777777-----11-11-11-11-11-11-11--------------------|
----XXXXXXXXXXX-----X--X--X--X--X--X--X---99999---55555-----|X2
----55555555555-----9--9--9--9--9--9--9---99999---55555-----|
------------------------------------------99999---55555-----|

VERSE
[ Tab from: http://www.guitartabs.cc/tabs/y/yellowcard/space_travel_tab_ver_4.html ]
---------------------------/-------------------------------|
--7-7-5-5-8-7-5-8-7-5------/-7-7-5-5-5-5-5-5-7~------------|
---7-7-7-7---7-----7-------/--7-7-7-7-6-6-7-7-----------X2-|
---------------------------/-------------------------------|
---------------------------/-------------------------------|
---------------------------/-------------------------------|

PRE CHORUS

-----------------------------------------------------------|
-----------------------------------------------------------|
----7777-XX----XX-6666-XX----------------------------------|
----7777-XX-77-XX-6666-XX-77------------X2-----------------|
----5555-XX-77-XX-4444-XX-77-------------------------------|
---------XX-77-XX------XX-77-------------------------------|

CHORUS
 NOT EXACT STRUMMING
------------------------------------------------------------|
------------------------------------------------------------|
----77777777777-----11-11-11-11-11-11-11--------------------|
----XXXXXXXXXXX-----X--X--X--X--X--X--X---99999---55555-----|X2
----55555555555-----9--9--9--9--9--9--9---99999---55555-----|
------------------------------------------99999---55555-----|

SOLO BIT ( VIOLIN PART)
------7----------------------------------------------------|
------7-----------JUST DO THAT ON THAT PART IF U LIKE------|
-----------------------------------------------------------|
-----------------------------------------------------------|
-----------------------------------------------------------|
-----------------------------------------------------------|

CHORUS
 NOT EXACT STRUMMING
------------------------------------------------------------|
------------------------------------------------------------|
----77777777777-----11-11-11-11-11-11-11--------------------|
----XXXXXXXXXXX-----X--X--X--X--X--X--X---99999---55555-----|X3
----55555555555-----9--9--9--9--9--9--9---99999---55555-----|
------------------------------------------99999---55555-----|

THATS IT GUYS IF U HAVE ANY CORRECTIONS JUST CORRECT IT UR SELVES ITS QUITE EASY TO PLAY 
SONG. SO ENJOY BITCHES!!!!!!!!

NiV