Yellowcard - Something Of Value Chords & Tabs

 

Something Of Value Chords & Tabs

Yellowcard Chords & Tabs

Version: 6 Type: Tab

Something Of Value Tab

Something Of Value - Yellowcard

Intro/chorus
e|-x-|-3-----3-----------3-----3------------|
B|-x-|-3-----3-----3-----3-----3-----3------|
G|-0-|-0-----0-----2-----0-----0-----2------|
D|-x-|-2-----0-----0-----2-----0-----0------|
A|-x-|-3-----2-----0-----3-----2-----0------|
E|-x-|-------3-----------------3------------|

Verse				x2
e|--0-----0-----0---|--0-----0-----0-----0---|---0---|
B|--0-----0-----0---|--0-----0-----0-----0---|---0---|
G|--0-----4-----4---|--0-----4-----4-----4---|---0---|
D|--2-----2-----2---|--2-----2-----2-----2---|---2---|
A|--2-----4-----3---|--2-----4-----3-----0---|---2---|
E|--0-----x-----x---|--0-----x-----x-----0---|---0---|

Repeat Chorus
[ Tab from: http://www.guitartabs.cc/tabs/y/yellowcard/something_of_value_tab_ver_6.html ]
Bridge
e|-3-----3-----3-----3-----3-----3--|--3-----3--|--3---------|
B|-3-----3-----3-----3-----3-----3--|--3-----3--|--3-----2---|
G|-0-----2-----0-----0-----0-----2--|--0-----0--|--0-----2---|
D|-0-----2-----2-----2-----0-----2--|--2-----2--|--2-----2---|
A|-2-----0-----2-----3-----2-----0--|--2-----2--|--3-----0---|
E|-3-----------0-----------3--------|--0-----0--|------------|
		x2		      1st end	  2nd end

Little solo thing
e|-----------------------3----3--|
B|-----------0-----0-------------|
G|-----0---------------0----0----|
D|---2-----------2---2----2------|
A|-2-------2---3-----------------|
E|-------3-----------------------|
		X2

Verse				x3
e|--0-----0-----0---|--0-----0-----0-----0---|---0---|
B|--0-----0-----0---|--0-----0-----0-----0---|---0---|
G|--0-----4-----4---|--0-----4-----4-----4---|---0---|
D|--2-----2-----2---|--2-----2-----2-----2---|---2---|
A|--2-----4-----3---|--2-----4-----3-----0---|---2---|
E|--0-----x-----x---|--0-----x-----x-----0---|---0---|

Repeat Chorus

Repeat Bridge a few times

Outro
e|--3-----3-------------------3----|
B|--3-----3-----3-----------3------|
G|--0-----0-----2---------0--------|
D|--2-----0-----0-------2----------|
A|--3-----2-----0-----3------------|
E|--------3------------------------|