Yellowcard - Something Of Value Chords & Tabs

 

Something Of Value Chords & Tabs

Yellowcard Chords & Tabs

Version: 5 Type: Tab 0 ratings
1 star 2 stars 3 stars 4 stars 5 stars
comments

Something Of Value Tab

Yellowcard: Something of Value, Tabbed by Generic_finn
Standard Tuning
Acoustic Guitar
+  on beat, +  down strum, -  up strum

Intro:
e|-3---3--3-3--3-3-3-3-|
B|-3---3--3-3--3-3-3-3-|
G|-0---0--0-0--0-0-0-0-|
D|-2---2--2-2--2-2-2-2-|
A|-3---3--3-3--3-3-3-3-|
E|---------------------|
   +   +  - +  + - + -

e|-3--3-3-3-3-3--3-3-3-3-3--3-3-3-3-3--3-3-3-3-|3--3-3-3-3-3--3-3-3-3-3--3-3-3-3-3--3-3-3-3-|
B|-3--3-3-3-3-3--3-3-3-3-3--3-3-3-3-3--3-3-3-3-|3--3-3-3-3-3--3-3-3-3-3--3-3-3-3-3--3-3-3-3-|
G|-0--0-0-0-0-0--0-0-0-0-0--0-0-0-0-0--0-0-0-0-|0--0-0-0-0-0--0-0-0-0-0--0-0-0-0-0--0-0-0-0-|
D|-2--2-2-2-2-2--2-2-2-2-2--2-2-2-2-2--2-2-2-2-|0--0-0-0-0-0--0-0-0-0-0--0-0-0-0-0--0-0-0-0-|
A|-3--3-3-3-3-3--3-3-3-3-3--3-3-3-3-3--3-3-3-3-|2--2-2-2-2-2--2-2-2-2-2--2-2-2-2-2--2-2-2-2-|
E|---------------------------------------------|3--3-3-3-3-3--3-3-3-3-3--3-3-3-3-3--3-3-3-3-|
   +  + - + - +  + - + - +  + - + - +  + - + -  +  + - + - +  + - + - +  + - + - +  + - 
-
	     All that I   needed to   hear from     you,        something of value but    
    untrue

e|-0--0-0-0-0-0--0-0-0-0-0--0-0-0-0-0--0-0-0-0-|0--0-0-0-0-0--0-0-0-0-0------|
B|-3--3-3-3-3-3--3-3-3-3-3--3-3-3-3-3--3-3-3-3-|3--3-3-3-3-3--3-3-3-3-3------|
G|-2--2-2-2-2-2--2-2-2-2-2--2-2-2-2-2--2-2-2-2-|2--2-2-2-2-2--2-2-2-2-2------|
D|-0--0-0-0-0-0--0-0-0-0-0--0-0-0-0-0--0-0-0-0-|0--0-0-0-0-0--0-0-0-0-0------|
A|-x--x-x-x-x-x--x-x-x-x-x--x-x-x-x-x--x-x-x-x-|x--x-x-x-x-x--x-x-x-x-x------|
E|-2--2-2-2-2-2--2-2-2-2-2--2-2-2-2-2--2-2-2-2-|2--2-2-2-2-2--2-2-2-2-2------|
   +  + - + - +  + - + - +  + - + - +  + - + -  +  + - + - +  + - + - +
                All that I  wished that I'd find within you...

e||--0--0-0-0-0-0--0-0-0-0-0--0-0-0-0-0--0-0-0-0-|0--0-0-0-0-0--0-0-0-0-0--0-0-0-0-0--0-0-0-0--||
B||--0--0-0-0-0-0--0-0-0-0-0--0-0-0-0-0--0-0-0-0-|0--0-0-0-0-0--0-0-0-0-8--8-8-8-8-8--8-8-8-8--||
G||*-0--0-0-0-0-0--0-0-0-0-4--4-4-4-4-4--4-4-4-4-|4--4-4-4-4-4--4-4-4-4-9--9-9-9-9-9--9-9-9-9-*||
D||*-2--2-2-2-2-2--2-2-2-2-5--5-5-5-5-5--5-5-5-5-|5--5-5-5-5-5--5-5-5-5-9--9-9-9-9-9--9-9-9-9-*||
A||--2--2-2-2-2-2--2-2-2-2-4--4-4-4-4-4--4-4-4-4-|3--3-3-3-3-3--3-3-3-3-7--7-7-7-7-7--7-7-7-7--||
E||--0--0-0-0-0-0--0-0-0-0-----------------------|----------------------0--0-0-0-0-0--0-0-0-0--||
     +  + - + - +  + - + - +  + - + - +  + - + -  +  + - + - +  + - + - +  + - + - +  + -+ -


e||----------------------------------------------|----------------------0--0-0-0-0-0--0-0-0-0--||
B||----------------------------------------------|----------------------8--8-8-8-8-8--8-8-8-8--||
G||*-4--4-4-4-4-4--4-4-4-4-4--4-4-4-4-4--4-4-4-4-|4--4-4-4-4-4--4-4-4-4-9--9-9-9-9-9--9-9-9-9-*||
D||*-5--5-5-5-5-5--5-5-5-5-5--5-5-5-5-5--5-5-5-5-|5--5-5-5-5-5--5-5-5-5-9--9-9-9-9-9--9-9-9-9-*||
A||--5--5-5-5-5-5--5-5-5-5-4--4-4-4-4-4--4-4-4-4-|3--3-3-3-3-3--3-3-3-3-7--7-7-7-7-7--7-7-7-7--||
E||----------------------------------------------|----------------------0--0-0-0-0-0--0-0-0-0--||
     +  + - + - +  + - + - +  + - + - +  + - + -  +  + - + - +  + - + - +  + - + - +  + -+ -
  1. See  how    what  she     wanted       and she       needed,                 tore 
all  down in the     end
  2. Somehow     like a        sickness        she        infects me, she's       simple 
  deadly my       friend

e|-3--3-3-3-3-3--3-3-3-3-3--3-3-3-3-3--3-3-3-3-|3--3-3-3-3-3--3-3-3-3-3--3-3-3-3-3--3-3-3-3-|
B|-3--3-3-3-3-3--3-3-3-3-3--3-3-3-3-3--3-3-3-3-|3--3-3-3-3-3--3-3-3-3-3--3-3-3-3-3--3-3-3-3-|
G|-0--0-0-0-0-0--0-0-0-0-0--0-0-0-0-0--0-0-0-0-|0--0-0-0-0-0--0-0-0-0-0--0-0-0-0-0--0-0-0-0-|
D|-2--2-2-2-2-2--2-2-2-2-2--2-2-2-2-2--2-2-2-2-|0--0-0-0-0-0--0-0-0-0-0--0-0-0-0-0--0-0-0-0-|
A|-3--3-3-3-3-3--3-3-3-3-3--3-3-3-3-3--3-3-3-3-|2--2-2-2-2-2--2-2-2-2-2--2-2-2-2-2--2-2-2-2-|
E|---------------------------------------------|3--3-3-3-3-3--3-3-3-3-3--3-3-3-3-3--3-3-3-3-|
   +  + - + - +  + - + - +  + - + - +  + - + -  +  + - + - +  + - + - +  + - + - +  + - 
-
	     All that I   needed to   hear from     you,        something of value but    
    untrue

e|-0--0-0-0-0-0--0-0-0-0-0--0-0-0-0-0--0-0-0-0-|0--0-0-0-0-0--0-0-0-0-0--0-0-0-0-0--0-0-0-0-|
B|-3--3-3-3-3-3--3-3-3-3-3--3-3-3-3-3--3-3-3-3-|3--3-3-3-3-3--3-3-3-3-3--3-3-3-3-3--3-3-3-3-|
G|-2--2-2-2-2-2--2-2-2-2-2--2-2-2-2-2--2-2-2-2-|2--2-2-2-2-2--2-2-2-2-2--2-2-2-2-2--2-2-2-2-|
D|-0--0-0-0-0-0--0-0-0-0-0--0-0-0-0-0--0-0-0-0-|0--0-0-0-0-0--0-0-0-0-0--0-0-0-0-0--0-0-0-0-|
A|-x--x-x-x-x-x--x-x-x-x-x--x-x-x-x-x--x-x-x-x-|x--x-x-x-x-x--x-x-x-x-x--x-x-x-x-x--x-x-x-x-|
E|-2--2-2-2-2-2--2-2-2-2-2--2-2-2-2-2--2-2-2-2-|2--2-2-2-2-2--2-2-2-2-2--2-2-2-2-2--2-2-2-2-|
   +  + - + - +  + - + - +  + - + - +  + - + -  +  + - + - +  + - + - +  + - + - +  + - 
-
                All that I  wished that I'd find within you,       stings when I see all 
ways that you

e||--3--3-3-3-3-0--0-0-0-0-0--0-0-0-0-0--0-0-0-0-|3--3-3-3-3-0--0-0-0-0-3--3-3-3-3-3--3-3-3-3--||
B||--3--3-3-3-3-1--1-1-1-1-0--0-0-0-0-1--1-1-1-1-|3--3-3-3-3-3--3-3-3-3-3--3-3-3-3-3--3-3-3-3--||
G||*-0--0-0-0-0-2--2-2-2-2-0--0-0-0-0-0--0-0-0-0-|0--0-0-0-0-2--2-2-2-2-0--0-0-0-0-0--0-0-0-0-*||
D||*-0--0-0-0-0-2--2-2-2-2-2--2-2-2-2-2--2-2-2-2-|0--0-0-0-0-0--0-0-0-0-2--2-2-2-2-2--2-2-2-2-*||
A||--2--2-2-2-2-0--0-0-0-0-2--2-2-2-2-3--3-3-3-3-|2--2-2-2-2-x--x-x-x-x-3--3-3-3-3-3--3-3-3-3--||
E||--3--3-3-3-3------------0--0-0-0-0------------|3--3-3-3-3-2--2-2-2-2------------------------||
     +  + - + - +  + - + - +  + - + - +  + - + -  +  + - + - +  + - + - +  + - + - +  + -+ -
  1. Took me for  granted and  told me it's through,     picked from my pockets and smiled
  2. Empty is     nothing and  nothing is   you, I       think I'll just sit for a while
[ Tab from: http://www.guitartabs.cc/tabs/y/yellowcard/something_of_value_tab_ver_5.html ]
e|--------------|------------|---------|-----------------------------|
B|--------------|------------|---------|------8------8---------------|
G|--------------|-------4----|-------4-|---------------------------4-|
D|---------2----|----5-------|----5----|----9------9-------------5---|
A|------2-------|-4----------|-3-------|--7------7-------------5-----|
E|---0----------|------------|---------|-----------------------------|
   See how what  I  wanted and  I  needed,  it  wasn't enough in the  end
						     Somehow
e|--------------------|---------|---------------------------|
B|--------------------|---------|---------8----------8------|
G|---------------4----|-------4-|---------------------------|
D|------------5-------|----5----|-------9----------9--------|
A|---------4----------|-3-------|-----7----------7----------|
E|--------------------|---------|---------------------------|
   with a  quickness  I    forgot her, I realized she wasn't my    friend

e||--0--0-0-0-0-0--0-0-0-0-0--0-0-0-0-0--0-0-0-0-|0--0-0-0-0-0--0-0-0-0-0--0-0-0-0-0--0-0-0-0--||
B||--0--0-0-0-0-0--0-0-0-0-0--0-0-0-0-0--0-0-0-0-|0--0-0-0-0-0--0-0-0-0-8--8-8-8-8-8--8-8-8-8--||
G||*-0--0-0-0-0-0--0-0-0-0-4--4-4-4-4-4--4-4-4-4-|4--4-4-4-4-4--4-4-4-4-9--9-9-9-9-9--9-9-9-9-*||
D||*-2--2-2-2-2-2--2-2-2-2-5--5-5-5-5-5--5-5-5-5-|5--5-5-5-5-5--5-5-5-5-9--9-9-9-9-9--9-9-9-9-*||
A||--2--2-2-2-2-2--2-2-2-2-4--4-4-4-4-4--4-4-4-4-|3--3-3-3-3-3--3-3-3-3-7--7-7-7-7-7--7-7-7-7--||
E||--0--0-0-0-0-0--0-0-0-0-----------------------|----------------------0--0-0-0-0-0--0-0-0-0--||
     +  + - + - +  + - + - +  + - + - +  + - + -  +  + - + - +  + - + - +  + - + - +  + -+ -
   1. See how       what I     wanted         and I      needed,       it         wasn't 
     enough in the  end
   2. Somehow       with a     quickness        I        forgot her,   I          
she wasn't my      friend

e||----------------------------------------------|----------------------0--0-0-0-0-0--0-0-0-0--||
B||----------------------------------------------|----------------------8--8-8-8-8-8--8-8-8-8--||
G||*-4--4-4-4-4-4--4-4-4-4-4--4-4-4-4-4--4-4-4-4-|4--4-4-4-4-4--4-4-4-4-9--9-9-9-9-9--9-9-9-9-*||
D||*-5--5-5-5-5-5--5-5-5-5-5--5-5-5-5-5--5-5-5-5-|5--5-5-5-5-5--5-5-5-5-9--9-9-9-9-9--9-9-9-9-*||
A||--5--5-5-5-5-5--5-5-5-5-4--4-4-4-4-4--4-4-4-4-|3--3-3-3-3-3--3-3-3-3-7--7-7-7-7-7--7-7-7-7--||
E||----------------------------------------------|----------------------0--0-0-0-0-0--0-0-0-0--||
     +  + - + - +  + - + - +  + - + - +  + - + -  +  + - + - +  + - + - +  + - + - +  + -+ -


e|-3--3-3-3-3-3--3-3-3-3-3--3-3-3-3-3--3-3-3-3-|3--3-3-3-3-3--3-3-3-3-3--3-3-3-3-3--3-3-3-3-|
B|-3--3-3-3-3-3--3-3-3-3-3--3-3-3-3-3--3-3-3-3-|3--3-3-3-3-3--3-3-3-3-3--3-3-3-3-3--3-3-3-3-|
G|-0--0-0-0-0-0--0-0-0-0-0--0-0-0-0-0--0-0-0-0-|0--0-0-0-0-0--0-0-0-0-0--0-0-0-0-0--0-0-0-0-|
D|-2--2-2-2-2-2--2-2-2-2-2--2-2-2-2-2--2-2-2-2-|0--0-0-0-0-0--0-0-0-0-0--0-0-0-0-0--0-0-0-0-|
A|-3--3-3-3-3-3--3-3-3-3-3--3-3-3-3-3--3-3-3-3-|2--2-2-2-2-2--2-2-2-2-2--2-2-2-2-2--2-2-2-2-|
E|---------------------------------------------|3--3-3-3-3-3--3-3-3-3-3--3-3-3-3-3--3-3-3-3-|
   +  + - + - +  + - + - +  + - + - +  + - + -  +  + - + - +  + - + - +  + - + - +  + - 
-
	     All that I  needed to    hear from    you,         something of value but    
    untrue

e|-0--0-0-0-0-0--0-0-0-0-0--0-0-0-0-0--0-0-0-0-|0--0-0-0-0-0--0-0-0-0-0--0-0-0-0-0--0-0-0-0-|
B|-3--3-3-3-3-3--3-3-3-3-3--3-3-3-3-3--3-3-3-3-|3--3-3-3-3-3--3-3-3-3-3--3-3-3-3-3--3-3-3-3-|
G|-2--2-2-2-2-2--2-2-2-2-2--2-2-2-2-2--2-2-2-2-|2--2-2-2-2-2--2-2-2-2-2--2-2-2-2-2--2-2-2-2-|
D|-0--0-0-0-0-0--0-0-0-0-0--0-0-0-0-0--0-0-0-0-|0--0-0-0-0-0--0-0-0-0-0--0-0-0-0-0--0-0-0-0-|
A|-x--x-x-x-x-x--x-x-x-x-x--x-x-x-x-x--x-x-x-x-|x--x-x-x-x-x--x-x-x-x-x--x-x-x-x-x--x-x-x-x-|
E|-2--2-2-2-2-2--2-2-2-2-2--2-2-2-2-2--2-2-2-2-|2--2-2-2-2-2--2-2-2-2-2--2-2-2-2-2--2-2-2-2-|
   +  + - + - +  + - + - +  + - + - +  + - + -  +  + - + - +  + - + - +  + - + - +  + - 
-
                All that I  wished that I'd find within you,       stings when I see all 
ways that you

e||--3--3-3-3-3-0--0-0-0-0-0--0-0-0-0-0--0-0-0-0-|3--3-3-3-3-0--0-0-0-0-3--3-3-3-3-3--||
B||--3--3-3-3-3-1--1-1-1-1-0--0-0-0-0-1--1-1-1-1-|3--3-3-3-3-3--3-3-3-3-3--3-3-3-3-3--||
G||*-0--0-0-0-0-2--2-2-2-2-0--0-0-0-0-0--0-0-0-0-|0--0-0-0-0-2--2-2-2-2-0--0-0-0-0-0-*||
D||*-0--0-0-0-0-2--2-2-2-2-2--2-2-2-2-2--2-2-2-2-|0--0-0-0-0-0--0-0-0-0-2--2-2-2-2-2-*||
A||--2--2-2-2-2-0--0-0-0-0-2--2-2-2-2-3--3-3-3-3-|2--2-2-2-2-x--x-x-x-x-3--3-3-3-3-3--||
E||--3--3-3-3-3------------0--0-0-0-0------------|3--3-3-3-3-2--2-2-2-2---------------||
     +  + - + - +  + - + - +  + - + - +  + - + -  +  + - + - +  + - + - +  + - + - +  
2x, only + for 5)
  1. Took me for  granted and  told me it's through,     picked from my pockets and smiled
  2. Empty is     nothing and  nothing is   you, I       think I'll just sit for a  while

e|---------7-8-9-||-10~--8-7-8-7----8-7-10-8-7-8-7------||-----------------------|
B|-7-8---10------||--------------8-----------------10---||-7---8---10---7----(8)-|
G|---------------||*-----------------------------------*||-----------------------|
D|---------------||*-----------------------------------*||-----------------------|
A|---------------||-------------------------------------||-----------------------|
E|---------------||-------------------------------------||-----------------------|

e|-3--3-3-3-3-3--3-3-3-3-3--3-3-3-3-3--3-3-3-3-|3--3-3-3-3-3--3-3-3-3-3---------------3--||
B|-3--3-3-3-3-3--3-3-3-3-3--3-3-3-3-3--3-3-3-3-|3--3-3-3-3-3--3-3-3-3-3---------------3--||
G|-0--0-0-0-0-0--0-0-0-0-0--0-0-0-0-0--0-0-0-0-|0--0-0-0-0-0--0-0-0-0-0---------------0--||
D|-2--2-2-2-2-2--2-2-2-2-2--2-2-2-2-2--2-2-2-2-|0--0-0-0-0-0--0-0-0-0-0---------------0--||
A|-3--3-3-3-3-3--3-3-3-3-3--3-3-3-3-3--3-3-3-3-|2--2-2-2-2-2--2-2-2-2-2---------------2--||
E|---------------------------------------------|3--3-3-3-3-3--3-3-3-3-3---------------3--||
   +  + - + - +  + - + - +  + - + - +  + - + -  +  + - + - +  + - + - +               + (slowly)
                All that I   wished that I'd find within you,      something of value... 
something untrue
Comments