Yellowcard - Something Of Value Chords & Tabs

 

Something Of Value Chords & Tabs

Yellowcard Chords & Tabs

Version: 4 Type: Tab 0 ratings
1 star 2 stars 3 stars 4 stars 5 stars
comments

Something Of Value Tab

   
Im wrote this out with the lyrics so its a little bit easier.
ENJOY!

intro
e|-----------------|
b|-----------------|
g|-0-0-0-0-0-0-0-0-|
d|-5-5-5-5-5-5-5-5-|
a|-----------------|
e|-----------------|

1st verse
   All that i needed to hear from you...
e|-3------------------------------3---|
b|-3------------------------------3---|
g|-0------------------------------0---|
d|-2------------------------------0---|
a|-3------------------------------2---|
e|-x------------------------------3---|

...something of value but something untrue
e|--------------3---------------------3---|
b|--------------3---------------------3---|
g|--------------0---------------------0---|
d|--------------0---------------------2---|
a|--------------0---------------------3---|
e|--------------2---------------------x---|

2nd verse
e|-0-----0-----0-------|
b|-0-----0-----0-----8-|
g|-0-----4-----4-----9-|
d|-2-----5-----5-----9-|
a|-2-----4-----3-----7-|
e|-0-----x-----x-----x-|

   See how what she wanted and she needed, Tore it all down in the end
e|-0----------------0--------------0---------------------------------|
b|-0----------------0--------------0----------8----------------------|
g|-4----------------4--------------4----------9----------------------|
d|-5----------------5--------------5----------9----------------------| X2
a|-5----------------4--------------3----------7----------------------|
e|-x----------------x--------------x----------x----------------------|
[ Tab from: http://www.guitartabs.cc/tabs/y/yellowcard/something_of_value_tab_ver_4.html ]
   All that i needed to hear from you Something of value but something untrue
e|-3------------------------------3----------------3---------------------3-|
b|-3------------------------------3----------------3---------------------3-|
g|-0------------------------------0----------------0---------------------0-|
d|-2------------------------------0----------------0---------------------2-|
a|-3------------------------------2----------------0---------------------3-|
e|-x------------------------------3----------------2---------------------x-|

   All that i wished that id find within you
e|-3-------------------------------------3---|
b|-3-------------------------------------3---|
g|-0-------------------------------------0---|
d|-2-------------------------------------0---|
a|-3-------------------------------------2---|
e|-x-------------------------------------3---|

Stings when i see all that ways that you
e|------------3-------------------------|
b|------------3-------------------------|
g|------------0-------------------------|
d|------------0-------------------------|
a|------------0-------------------------|
e|------------2-------------------------|
   Took me for granate and told me its through Pick from my pockets and smile
e|-3-----------0-----------0-----------3-------3------------3-----------3----|
b|-3-----------1-----------1-----------3-------3------------3-----------3----|
g|-0-----------2-----------0-----------0-------0------------0-----------0----|
d|-0-----------2-----------2-----------2-------0------------0-----------2----|
a|-2-----------0-----------3-----------3-------2------------0-----------3----|
e|-3-----------x-----------x-----------x-------3------------2-----------x----|

Play this with the "EMPTY IS NOTHING AND NOTHING IS YOU..."
Comments