Yellowcard - Something Of Value Chords & Tabs

 

Something Of Value Chords & Tabs

Yellowcard Chords & Tabs

Version: 3 Type: Tab 0 ratings
1 star 2 stars 3 stars 4 stars 5 stars
comments

Something Of Value Tab

Artist- Yellowcard
Song- Something of value
Tabber- Iconoclast (fixed by terranmoccasin)
Tuning- Normal

okay, this is basically the same as the tab by Iconoclast but i think i might
have found better chords instead of the C and some others.  well, enjoy!

Intro
------------------------|
------------------------|
-0-0-0-0-0-0-0-0--------|
-5-5-5-5-5-5-5-5--------|
------------------------|
------------------------|

Riff 1- Each chord 16x (prechorus)
-3--3-3------------------------|
-3--3-3------------------------|
-0--0-2------------------------|
-2--0-0------------------------|
-3--2-0------------------------|
-x--3-2------------------------|

Riff 2- Each chord 8x
-0-0-0-0------------------------|
-0-0-0-8------------------------|
-0-4-4-9------------------------|
-2-5-5-9------------------------|
-2-4-3-7------------------------|
-0-----0------------------------|
[ Tab from: http://www.guitartabs.cc/tabs/y/yellowcard/something_of_value_tab_ver_3.html ]
Riff 3- Each chord 8x
-------0---------------------|
-------8---------------------|
-4-4-4-9---------------------|
-5-5-5-9---------------------|
-5-4-3-7---------------------|
-------0---------------------|

Riff 4- Each chord 5x (Chorus)
-3-0-0-3-3-3-0------------------|
-3-1-0-3-3-3-1------------------|
-0-2-0-0-0-2-0------------------|
-0-2-2-2-0-0-2------------------|
-2-0-2-3-2-0-3------------------|
-3-x-0-x-3-2-x------------------|

Riff 5
-------------------------------------------------------------|
-----------------------8-----8-----------------------8-----8-|
-----------4-----4-----------------4-----4-----4-------------|
-----2---5-----5-----9-----9-----5-----5-----5-----9-----9---|
---2---4-----3-----7-----7-----5-----4-----3-----7-----7-----|
-0-----------------------------------------------------------|


Setup
Intro
Riff 1
Riff 2
Riff 3
Riff 1
Riff 4
Riff 5
Riff 2
Riff 1
Riff 4
String part with no guitar
Riff 1
Comments