Yellowcard - Shallow Chords & Tabs

 

Shallow Chords & Tabs

Yellowcard Chords & Tabs

Version: 1 Type: Tab 0 ratings
1 star 2 stars 3 stars 4 stars 5 stars
comments

Shallow Tab

Shallow by Yellowcard



Tabbed by: Berto
email: zheekuli@yahoo.com

;)__"Figure out the strumming, its easy!"



INTRO:
Guitar 1
e|---(let ring)---|
B|----------------|
G|----------------|
D|--5~------------|
A|--5~------------|
E|--3~------------|
[ Tab from: http://www.guitartabs.cc/tabs/y/yellowcard/shallow_tab.html ]
e|----------------|
B|----------------|
G|--------5--7----|
D|--5--2--5--7----|  x2
A|--5--2--3--5----|
E|--3--0----------|

Guitar 2
e|--x---x---x--|   |--x---12---|
B|--8--13--14--|   |-10----x---|
G|--x---x---x--|   |--x----9---|
D|--5--10--11--| x3|--7----x---|
A|--x---x---x--|   |--x--------|
E|-------------|   |-----------|

Thats all for the intro...
NgieE~!
Comments