Yellowcard - Rough Draft Chords & Tabs

 

Rough Draft Chords & Tabs

Yellowcard Chords & Tabs

Version: 5 Type: Tab 0 ratings
1 star 2 stars 3 stars 4 stars 5 stars
comments

Rough Draft Tab

Rough Draft                                
                                                         
E||--------------0-----------|--------------------------|
B||--------------------------|--------------0-----------|
G||--------2--------2-----2--|--------1--------1-----1--|
D||-----2-----2--------2-----|-----2-----2--------2-----|
A||--0-----------------------|--------------------------|
E||--------------------------|--0-----------------------|


                                                      
--------------------------|--------------0-----------|
--------------------------|--------3--------3-----3--|
--------1-----2/-1-----1--|-----2-----2--------2-----|
-----2-----2--------2-----|--0-----------------------|
--------------------------|--------------------------|
--2-----------------------|--------------------------|


                                                      
--------------0-----------|--------------------------|
--------------------------|--------------0-----------|
--------2--------2-----2--|--------1--------1-----1--|
-----2-----2--------2-----|-----2-----2--------2-----|
--0-----------------------|--------------------------|
--------------------------|--0-----------------------|


                                                      
--------------------------|--------------0-----------|
--------------------------|--------3--------3-----3--|
--------1-----2/-1-----1--|-----2-----2--------2-----|
-----2-----2--------2-----|--0-----------------------|
--------------------------|--------------------------|
--2-----------------------|--------------------------|


                                                      
--------------0-----------|--------------------------|
--------------------------|--------------0-----------|
--------2--------2-----2--|--------1--------1-----1--|
-----2-----2--------2-----|-----2-----2--------2-----|
--0-----------------------|--------------------------|
--------------------------|--0-----------------------|


                                                      
--------------------------|--------------0-----------|
--------------------------|--------3--------3-----3--|
--------1-----2/-1-----1--|-----2-----2--------2-----|
-----2-----2--------2-----|--0-----------------------|
--------------------------|--------------------------|
--2-----------------------|--------------------------|


                                                                          
--------------0-----------|--------------------------|-------------------|
--------------------------|--------------0-----------|-------------------|
--------2--------2-----2--|--------1--------1-----1--|-------------------|
-----2-----2--------2-----|-----2-----2--------2-----|-------------------|
--0-----------------------|--------------------------|-------------------|
--------------------------|--0-----------------------|--2----------------|


                                                                        
-------------------|--0--0--x--0----0--x--0--|--0--0--x--0----0--x--0--|
-------------------|--0--0--x--0----0--x--0--|--0--0--x--0----0--x--0--|
-------------------|--1--1--x--2----2--x--2--|--1--1--x--2----2--x--2--|
-------------------|--2--2--x--2----2--x--2--|--2--2--x--2----2--x--2--|
-------------------|--0--0--x--0----0--x--0--|--0--0--x--0----0--x--0--|
--1----------------|--0--0--x--0----0--x--0--|--0--0--x--0----0--x--0--|


                                                                            
--0----0----x--0--0--0--|----0--0--x--0--0--0----|--0--0--x--0--0----0--0--|
--3----3----x--3--3--3--|----3--3--x--3--3--3----|--0--0--x--0--0----0--0--|
--2----2----x--2--2--2--|----2--2--x--2--2--2----|--1--1--x--1--1----1--1--|
--0----0----x--0--0--0--|----0--0--x--0--0--0----|--2--2--x--2--2----2--2--|
------------------------|------------------------|--2--2--x--2--2----2--2--|
------------------------|------------------------|--0--0--x--0--0----0--0--|


                                                                            
--0--x--0--0----0--x--0--|--2----2----x--2--2--2--|----2--2--x--2--2--2----|
--0--x--0--0----0--x--0--|--3----3----x--3--3--3--|----3--3--x--3--3--3----|
--1--x--1--1----1--x--1--|--2----2----x--2--2--2--|----2--2--x--2--2--2----|
--2--x--2--2----2--x--2--|--0----0----x--0--0--0--|----0--0--x--0--0--0----|
--2--x--2--2----2--x--2--|------------------------|------------------------|
--0--x--0--0----0--x--0--|------------------------|------------------------|


                                                                             
--0--0--x--0----0--x--0--|--0--0--x--0----0--x--0--|--0----0----x--0--0--0--|
--0--0--x--0----0--x--0--|--0--0--x--0----0--x--0--|--3----3----x--3--3--3--|
--1--1--x--2----2--x--1--|--1--1--x--2----2--x--1--|--2----2----x--2--2--2--|
--2--2--x--2----2--x--2--|--2--2--x--2----2--x--2--|--0----0----x--0--0--0--|
--0--0--x--0----0--x--0--|--0--0--x--0----0--x--0--|------------------------|
--0--0--x--0----0--x--0--|--0--0--x--0----0--x--0--|------------------------|


                                                                             
----0--0--x--0--0--0----|--0--0--x--0----0--x--0--|--0--0--x--0----0--x--0--|
----3--3--x--3--3--3----|--0--0--x--0----0--x--0--|--0--0--x--0----0--x--0--|
----2--2--x--2--2--2----|--1--1--x--1----1--x--1--|--1--1--x--1----1--x--1--|
----0--0--x--0--0--0----|--2--2--x--2----2--x--2--|--2--2--x--2----2--x--2--|
------------------------|--2--2--x--2----2--x--2--|--2--2--x--2----2--x--2--|
------------------------|--0--0--x--0----0--x--0--|--0--0--x--0----0--x--0--|


                                                                                
-----0--------0-----------|-----0--------0-----------|--0--0--x--0----0--x--0--|
--------3--------3-----3--|--------3--------3-----3--|--0--0--x--0----0--x--0--|
-----------2--------2-----|-----------2--------2-----|--1--1--x--2----2--x--1--|
--0-----------------------|--0-----------------------|--2--2--x--2----2--x--2--|
--------------------------|--------------------------|--0--0--x--0----0--x--0--|
--------------------------|--------------------------|--0--0--x--0----0--x--0--|


                                                                            
--0--0--x--0----0--x--0--|--0----0----x--0--0--0--|----0--0--x--0--0--0----|
--0--0--x--0----0--x--0--|--3----3----x--3--3--3--|----3--3--x--3--3--3----|
--1--1--x--2----2--x--1--|--2----2----x--2--2--2--|----2--2--x--2--2--2----|
--2--2--x--2----2--x--2--|--0----0----x--0--0--0--|----0--0--x--0--0--0----|
--0--0--x--0----0--x--0--|------------------------|------------------------|
--0--0--x--0----0--x--0--|------------------------|------------------------|


                                                                               
--0--0--x--0----0--x--0--|--0--0--x--0----0--x--0--|-----0--------0-----------|
--0--0--x--0----0--x--0--|--0--0--x--0----0--x--0--|--------3--------3-----3--|
--1--1--x--1----1--x--1--|--1--1--x--1----1--x--1--|-----------2--------2-----|
--2--2--x--2----2--x--2--|--2--2--x--2----2--x--2--|--0-----------------------|
--2--2--x--2----2--x--2--|--2--2--x--2----2--x--2--|--------------------------|
--0--0--x--0----0--x--0--|--0--0--x--0----0--x--0--|--------------------------|


                                                                               
-----0--------0-----------|--0--0--0--0----0--0--0--|--0--0--0--0----0--0--0--|
--------3--------3-----3--|--2--2--2--2----2--2--2--|--0--0--0--0----0--0--0--|
-----------2--------2-----|--2--2--2--2----2--2--2--|--1--1--1--1----1--1--1--|
--0-----------------------|--2--2--2--2----2--2--2--|--2--2--2--2----2--2--2--|
--------------------------|--0--0--0--0----0--0--0--|--2--2--2--2----2--2--2--|
--------------------------|-------------------------|--0--0--0--0----0--0--0--|


                                                                              
--2--2--2--2----2--2--2--|--2--2--2--2----2--2--2--|--0--0--0--0----0--0--0--|
--2--2--2--2----2--2--2--|--3--3--3--3----3--3--3--|--2--2--2--2----2--2--2--|
--2--2--2--2----2--2--2--|--2--2--2--2----2--2--2--|--2--2--2--2----2--2--2--|
--4--4--4--4----4--4--4--|--0--0--0--0----0--0--0--|--2--2--2--2----2--2--2--|
--4--4--4--4----4--4--4--|-------------------------|--0--0--0--0----0--0--0--|
--2--2--2--2----2--2--2--|-------------------------|-------------------------|


                                                                         
--0--0--0--0----0--0--0--|--------------5/-4--2-----|--2----------------|
--0--0--0--0----0--0--0--|--------2-----------------|--3----------------|
--1--1--1--1----1--1--1--|-----2-----2--------------|--2----------------|
--2--2--2--2----2--2--2--|--4-----------------------|--0----------------|
--2--2--2--2----2--2--2--|-----------------------0--|-------------------|
--0--0--0--0----0--0--0--|--------------------------|-------------------|


                                                                              
--0--0--0--0----0--0--0--|--0--0--0--0----0--0--0--|--2--2--2--2----2--2--2--|
--2--2--2--2----2--2--2--|--0--0--0--0----0--0--0--|--2--2--2--2----2--2--2--|
--2--2--2--2----2--2--2--|--1--1--1--1----1--1--1--|--2--2--2--2----2--2--2--|
--2--2--2--2----2--2--2--|--2--2--2--2----2--2--2--|--4--4--4--4----4--4--4--|
--0--0--0--0----0--0--0--|--2--2--2--2----2--2--2--|--4--4--4--4----4--4--4--|
-------------------------|--0--0--0--0----0--0--0--|--2--2--2--2----2--2--2--|


                                                                              
--2--2--2--2----2--2--2--|--0--0--0--0----0--0--0--|--0--0--0--0----0--0--0--|
--3--3--3--3----3--3--3--|--2--2--2--2----2--2--2--|--0--0--0--0----0--0--0--|
--2--2--2--2----2--2--2--|--2--2--2--2----2--2--2--|--1--1--1--1----1--1--1--|
--0--0--0--0----0--0--0--|--2--2--2--2----2--2--2--|--2--2--2--2----2--2--2--|
-------------------------|--0--0--0--0----0--0--0--|--2--2--2--2----2--2--2--|
-------------------------|-------------------------|--0--0--0--0----0--0--0--|


                                                                              
--0--0--0--0----0--0--0--|--0--0--0--0----0--0--0--|--0--0--0--0----0--0--0--|
--3--3--3--3----3--3--3--|--3--3--3--3----3--3--3--|--2--2--2--2----2--2--2--|
--2--2--2--2----2--2--2--|--2--2--2--2----2--2--2--|--2--2--2--2----2--2--2--|
--0--0--0--0----0--0--0--|--0--0--0--0----0--0--0--|--2--2--2--2----2--2--2--|
-------------------------|-------------------------|--0--0--0--0----0--0--0--|
-------------------------|-------------------------|-------------------------|


                                                                              
--0--0--0--0----0--0--0--|--2--2--2--2----2--2--2--|--2--2--2--2----2--2--2--|
--0--0--0--0----0--0--0--|--2--2--2--2----2--2--2--|--3--3--3--3----3--3--3--|
--1--1--1--1----1--1--1--|--2--2--2--2----2--2--2--|--2--2--2--2----2--2--2--|
--2--2--2--2----2--2--2--|--4--4--4--4----4--4--4--|--0--0--0--0----0--0--0--|
--2--2--2--2----2--2--2--|--4--4--4--4----4--4--4--|-------------------------|
--0--0--0--0----0--0--0--|--2--2--2--2----2--2--2--|-------------------------|


                                                                              
--0--0--0--0----0--0--0--|--0--0--0--0----0--0--0--|--0--0--0--0----0--0--0--|
--2--2--2--2----2--2--2--|--0--0--0--0----0--0--0--|--3--3--3--3----3--3--3--|
--2--2--2--2----2--2--2--|--1--1--1--1----1--1--1--|--2--2--2--2----2--2--2--|
--2--2--2--2----2--2--2--|--2--2--2--2----2--2--2--|--0--0--0--0----0--0--0--|
--0--0--0--0----0--0--0--|--2--2--2--2----2--2--2--|-------------------------|
-------------------------|--0--0--0--0----0--0--0--|-------------------------|


                                                                              
--0--0--0--0----0--0--0--|--0--0--x--0----0--x--0--|--0--0--x--0----0--x--0--|
--3--3--3--3----3--3--3--|--0--0--x--0----0--x--0--|--0--0--x--0----0--x--0--|
--2--2--2--2----2--2--2--|--1--1--x--2----2--x--1--|--1--1--x--2----2--x--1--|
--0--0--0--0----0--0--0--|--2--2--x--2----2--x--2--|--2--2--x--2----2--x--2--|
-------------------------|--0--0--x--0----0--x--0--|--0--0--x--0----0--x--0--|
-------------------------|--0--0--x--0----0--x--0--|--0--0--x--0----0--x--0--|


                                                                            
--0----0----x--0--0--0--|----0--0--x--0--0--0----|--0--0--x--0----0--x--0--|
--3----3----x--3--3--3--|----3--3--x--3--3--3----|--0--0--x--0----0--x--0--|
--2----2----x--2--2--2--|----2--2--x--2--2--2----|--1--1--x--1----1--x--1--|
--0----0----x--0--0--0--|----0--0--x--0--0--0----|--2--2--x--2----2--x--2--|
------------------------|------------------------|--2--2--x--2----2--x--2--|
------------------------|------------------------|--0--0--x--0----0--x--0--|


                                                                            
--0--0--x--0----0--x--0--|--0----0----x--0--0--0--|----0--0--x--0--0--0----|
--0--0--x--0----0--x--0--|--3----3----x--3--3--3--|----3--3--x--3--3--3----|
--1--1--x--1----1--x--1--|--2----2----x--2--2--2--|----2--2--x--2--2--2----|
--2--2--x--2----2--x--2--|--0----0----x--0--0--0--|----0--0--x--0--0--0----|
--2--2--x--2----2--x--2--|------------------------|------------------------|
--0--0--x--0----0--x--0--|------------------------|------------------------|

[ Tab from: http://www.guitartabs.cc/tabs/y/yellowcard/rough_draft_tab_ver_5.html ]
                                                                             
--0--0--x--0----0--x--0--|--0--0--x--0----0--x--0--|--0----0----x--0--0--0--|
--0--0--x--0----0--x--0--|--0--0--x--0----0--x--0--|--3----3----x--3--3--3--|
--1--1--x--2----2--x--1--|--1--1--x--2----2--x--1--|--2----2----x--2--2--2--|
--2--2--x--2----2--x--2--|--2--2--x--2----2--x--2--|--0----0----x--0--0--0--|
--0--0--x--0----0--x--0--|--0--0--x--0----0--x--0--|------------------------|
--0--0--x--0----0--x--0--|--0--0--x--0----0--x--0--|------------------------|


                                                                             
----0--0--x--0--0--0----|--0--0--x--0----0--x--0--|--0--0--x--0----0--x--0--|
----3--3--x--3--3--3----|--0--0--x--0----0--x--0--|--0--0--x--0----0--x--0--|
----2--2--x--2--2--2----|--1--1--x--1----1--x--1--|--1--1--x--1----1--x--1--|
----0--0--x--0--0--0----|--2--2--x--2----2--x--2--|--2--2--x--2----2--x--2--|
------------------------|--2--2--x--2----2--x--2--|--2--2--x--2----2--x--2--|
------------------------|--0--0--x--0----0--x--0--|--0--0--x--0----0--x--0--|


                                                                                
-----0--------0-----------|-----0--------0-----------|--0--0--x--0----0--x--0--|
--------3--------3-----3--|--------3--------3-----3--|--0--0--x--0----0--x--0--|
-----------2--------2-----|-----------2--------2-----|--1--1--x--2----2--x--1--|
--0-----------------------|--0-----------------------|--2--2--x--2----2--x--2--|
--------------------------|--------------------------|--0--0--x--0----0--x--0--|
--------------------------|--------------------------|--0--0--x--0----0--x--0--|


                                                                            
--0--0--x--0----0--x--0--|--0----0----x--0--0--0--|----0--0--x--0--0--0----|
--0--0--x--0----0--x--0--|--3----3----x--3--3--3--|----3--3--x--3--3--3----|
--1--1--x--2----2--x--1--|--2----2----x--2--2--2--|----2--2--x--2--2--2----|
--2--2--x--2----2--x--2--|--0----0----x--0--0--0--|----0--0--x--0--0--0----|
--0--0--x--0----0--x--0--|------------------------|------------------------|
--0--0--x--0----0--x--0--|------------------------|------------------------|


                                                                               
--0--0--x--0----0--x--0--|--0--0--x--0----0--x--0--|-----0--------0-----------|
--0--0--x--0----0--x--0--|--0--0--x--0----0--x--0--|--------3--------3-----3--|
--1--1--x--1----1--x--1--|--1--1--x--1----1--x--1--|-----------2--------2-----|
--2--2--x--2----2--x--2--|--2--2--x--2----2--x--2--|--0-----------------------|
--2--2--x--2----2--x--2--|--2--2--x--2----2--x--2--|--------------------------|
--0--0--x--0----0--x--0--|--0--0--x--0----0--x--0--|--------------------------|


                                                        
-----0--------0-----------||---------0--0--------0--0--|
--------3--------3-----3--||------0--0--0-----0--0--0--|
-----------2--------2-----||*--2--2--2--2--2--2--2--2--|
--0-----------------------||*--2--2--2--2--2--2--2--2--|
--------------------------||---0--0--0--0--0--0--0--0--|
--------------------------||---------------------------|


                                                      
--------0--0--------0--0--|--------0--0--------0--0--|
-----0--0--0-----0--0--0--|-----0--0--0-----0--0--0--|
--6--6--6--6--6--6--6--6--|--7--7--7--7--7--7--7--7--|
--6--6--6--6--6--6--6--6--|--7--7--7--7--7--7--7--7--|
--4--4--4--4--4--4--4--4--|--5--5--5--5--5--5--5--5--|
--------------------------|--------------------------|


                           3x                           
--------0--0--------0--0---||--------0--0--------0--0--|
-----0--0--0-----0--0--0---||-----0--0--0-----0--0--0--|
--9--9--9--9--9--9--9--9--*||--2--2--2--2--2--2--2--2--|
--9--9--9--9--9--9--9--9--*||--2--2--2--2--2--2--2--2--|
--7--7--7--7--7--7--7--7---||--0--0--0--0--0--0--0--0--|
---------------------------||--------------------------|


                                                      
--------0--0--------0--0--|--------0--0--------0--0--|
-----0--0--0-----0--0--0--|-----0--0--0-----0--0--0--|
--6--6--6--6--6--6--6--6--|--7--7--7--7--7--7--7--7--|
--6--6--6--6--6--6--6--6--|--7--7--7--7--7--7--7--7--|
--4--4--4--4--4--4--4--4--|--5--5--5--5--5--5--5--5--|
--------------------------|--------------------------|


                                                      
--------0--0--------0--0--|--------0--0--------0--0--|
-----0--0--0-----0--0--0--|-----0--0--0-----0--0--0--|
--9--9--9--9--9--9--9--9--|--2--2--2--2--2--2--2--2--|
--9--9--9--9--9--9--9--9--|--2--2--2--2--2--2--2--2--|
--7--7--7--7--7--7--7--7--|--0--0--0--0--0--0--0--0--|
--------------------------|--------------------------|


                                                                            
--------0--0--------0--0--|--------0--0--------0--0--|---------------------|
-----0--0--0-----0--0--0--|-----0--0--0-----0--0--0--|-----0--x------------|
--6--6--6--6--6--6--6--6--|--7--7--7--7--7--7--7--7--|--9--9--x------------|
--6--6--6--6--6--6--6--6--|--7--7--7--7--7--7--7--7--|--9--9--x------------|
--4--4--4--4--4--4--4--4--|--5--5--5--5--5--5--5--5--|--7--7--x------------|
--------------------------|--------------------------|---------------------|


                                                      
--------0--0--------0--0--|--------0--0--------0--0--|
-----0--0--0-----0--0--0--|-----0--0--0-----0--0--0--|
--2--2--2--2--2--2--2--2--|--6--6--6--6--6--6--6--6--|
--2--2--2--2--2--2--2--2--|--6--6--6--6--6--6--6--6--|
--0--0--0--0--0--0--0--0--|--4--4--4--4--4--4--4--4--|
--------------------------|--------------------------|


                                                      
--------0--0--------0--0--|--------0--0--------0--0--|
-----0--0--0-----0--0--0--|-----0--0--0-----0--0--0--|
--7--7--7--7--7--7--7--7--|--9--9--9--9--9--9--9--9--|
--7--7--7--7--7--7--7--7--|--9--9--9--9--9--9--9--9--|
--5--5--5--5--5--5--5--5--|--7--7--7--7--7--7--7--7--|
--------------------------|--------------------------|


                                                      
--------0--0--------0--0--|--------0--0--------0--0--|
-----0--0--0-----0--0--0--|-----0--0--0-----0--0--0--|
--2--2--2--2--2--2--2--2--|--6--6--6--6--6--6--6--6--|
--2--2--2--2--2--2--2--2--|--6--6--6--6--6--6--6--6--|
--0--0--0--0--0--0--0--0--|--4--4--4--4--4--4--4--4--|
--------------------------|--------------------------|


                                                                               
--------0--0--------0--0--|--------0--0--------0--0--|--2----2----x--2--2--2--|
-----0--0--0-----0--0--0--|-----0--0--0-----0--0--0--|--3----3----x--3--3--3--|
--7--7--7--7--7--7--7--7--|--9--9--9--9--9--9--9--9--|--2----2----x--2--2--2--|
--7--7--7--7--7--7--7--7--|--9--9--9--9--9--9--9--9--|--0----0----x--0--0--0--|
--5--5--5--5--5--5--5--5--|--7--7--7--7--7--7--7--7--|------------------------|
--------------------------|--------------------------|------------------------|


                                                                
----2--2--x--2--2--2----|--1----------------|------------------|
----3--3--x--3--3--3----|--3----------------|------------------|
----2--2--x--2--2--2----|--2----------------|------------------|
----0--0--x--0--0--0----|--0----------------|------------------|
------------------------|-------------------|------------------|
------------------------|-------------------|------------------|


                                                                              
--0--0--0--0----0--0--0--|--0--0--0--0----0--0--0--|--2--2--2--2----2--2--2--|
--2--2--2--2----2--2--2--|--0--0--0--0----0--0--0--|--2--2--2--2----2--2--2--|
--2--2--2--2----2--2--2--|--1--1--1--1----1--1--1--|--2--2--2--2----2--2--2--|
--2--2--2--2----2--2--2--|--2--2--2--2----2--2--2--|--4--4--4--4----4--4--4--|
--0--0--0--0----0--0--0--|--2--2--2--2----2--2--2--|--4--4--4--4----4--4--4--|
-------------------------|--0--0--0--0----0--0--0--|--2--2--2--2----2--2--2--|


                                                                              
--2--2--2--2----2--2--2--|--0--0--0--0----0--0--0--|--0--0--0--0----0--0--0--|
--3--3--3--3----3--3--3--|--2--2--2--2----2--2--2--|--0--0--0--0----0--0--0--|
--2--2--2--2----2--2--2--|--2--2--2--2----2--2--2--|--1--1--1--1----1--1--1--|
--0--0--0--0----0--0--0--|--2--2--2--2----2--2--2--|--2--2--2--2----2--2--2--|
-------------------------|--0--0--0--0----0--0--0--|--2--2--2--2----2--2--2--|
-------------------------|-------------------------|--0--0--0--0----0--0--0--|


                                                                              
--0--0--0--0----0--0--0--|--0--0--0--0----0--0--0--|--0--0--0--0----0--0--0--|
--3--3--3--3----3--3--3--|--3--3--3--3----3--3--3--|--2--2--2--2----2--2--2--|
--2--2--2--2----2--2--2--|--2--2--2--2----2--2--2--|--2--2--2--2----2--2--2--|
--0--0--0--0----0--0--0--|--0--0--0--0----0--0--0--|--2--2--2--2----2--2--2--|
-------------------------|-------------------------|--0--0--0--0----0--0--0--|
-------------------------|-------------------------|-------------------------|


                                                                              
--0--0--0--0----0--0--0--|--2--2--2--2----2--2--2--|--2--2--2--2----2--2--2--|
--0--0--0--0----0--0--0--|--2--2--2--2----2--2--2--|--3--3--3--3----3--3--3--|
--1--1--1--1----1--1--1--|--2--2--2--2----2--2--2--|--2--2--2--2----2--2--2--|
--2--2--2--2----2--2--2--|--4--4--4--4----4--4--4--|--0--0--0--0----0--0--0--|
--2--2--2--2----2--2--2--|--4--4--4--4----4--4--4--|-------------------------|
--0--0--0--0----0--0--0--|--2--2--2--2----2--2--2--|-------------------------|


                                                                              
--0--0--0--0----0--0--0--|--0--0--0--0----0--0--0--|--0--0--0--0----0--0--0--|
--2--2--2--2----2--2--2--|--0--0--0--0----0--0--0--|--3--3--3--3----3--3--3--|
--2--2--2--2----2--2--2--|--1--1--1--1----1--1--1--|--2--2--2--2----2--2--2--|
--2--2--2--2----2--2--2--|--2--2--2--2----2--2--2--|--0--0--0--0----0--0--0--|
--0--0--0--0----0--0--0--|--2--2--2--2----2--2--2--|-------------------------|
-------------------------|--0--0--0--0----0--0--0--|-------------------------|


                                                                              
--0--0--0--0----0--0--0--|--0--0--0--0----0--0--0--|--0--0--0--0----0--0--0--|
--3--3--3--3----3--3--3--|--2--2--2--2----2--2--2--|--0--0--0--0----0--0--0--|
--2--2--2--2----2--2--2--|--2--2--2--2----2--2--2--|--1--1--1--1----1--1--1--|
--0--0--0--0----0--0--0--|--2--2--2--2----2--2--2--|--2--2--2--2----2--2--2--|
-------------------------|--0--0--0--0----0--0--0--|--2--2--2--2----2--2--2--|
-------------------------|-------------------------|--0--0--0--0----0--0--0--|


                                                                              
--2--2--2--2----2--2--2--|--2--2--2--2----2--2--2--|--0--0--0--0----0--0--0--|
--2--2--2--2----2--2--2--|--3--3--3--3----3--3--3--|--2--2--2--2----2--2--2--|
--2--2--2--2----2--2--2--|--2--2--2--2----2--2--2--|--2--2--2--2----2--2--2--|
--4--4--4--4----4--4--4--|--0--0--0--0----0--0--0--|--2--2--2--2----2--2--2--|
--4--4--4--4----4--4--4--|-------------------------|--0--0--0--0----0--0--0--|
--2--2--2--2----2--2--2--|-------------------------|-------------------------|


                                                                              
--0--0--0--0----0--0--0--|--2--2--2--2----2--2--2--|--2--2--2--2----2--2--2--|
--0--0--0--0----0--0--0--|--2--2--2--2----2--2--2--|--3--3--3--3----3--3--3--|
--1--1--1--1----1--1--1--|--2--2--2--2----2--2--2--|--2--2--2--2----2--2--2--|
--2--2--2--2----2--2--2--|--4--4--4--4----4--4--4--|--0--0--0--0----0--0--0--|
--2--2--2--2----2--2--2--|--4--4--4--4----4--4--4--|-------------------------|
--0--0--0--0----0--0--0--|--2--2--2--2----2--2--2--|-------------------------|


                                                                              
--0--0--0--0----0--0--0--|--0--0--0--0----0--0--0--|--2--2--2--2----2--2--2--|
--2--2--2--2----2--2--2--|--0--0--0--0----0--0--0--|--2--2--2--2----2--2--2--|
--2--2--2--2----2--2--2--|--1--1--1--1----1--1--1--|--2--2--2--2----2--2--2--|
--2--2--2--2----2--2--2--|--2--2--2--2----2--2--2--|--4--4--4--4----4--4--4--|
--0--0--0--0----0--0--0--|--2--2--2--2----2--2--2--|--4--4--4--4----4--4--4--|
-------------------------|--0--0--0--0----0--0--0--|--2--2--2--2----2--2--2--|


                                                                            
--2--2--2--2----2--2--2--|--0----0--0----0--0--0--|--0----0--0----0--0--0--|
--3--3--3--3----3--3--3--|--2----2--2----2--2--2--|--0----0--0----0--0--0--|
--2--2--2--2----2--2--2--|--2----2--2----2--2--2--|--1----1--1----1--1--1--|
--0--0--0--0----0--0--0--|--2----2--2----2--2--2--|--2----2--2----2--2--2--|
-------------------------|--0----0--0----0--0--0--|--2----2--2----2--2--2--|
-------------------------|------------------------|--0----0--0----0--0--0--|


                                                              
--------------------|--------------------|--0----------------|
--10----------------|--10----------------|--2----------------|
--11----------------|--10----------------|--2----------------|
--11----------------|--11----------------|--2----------------|
--9-----------------|--8-----------------|--0----------------|
--------------------|--------------------|-------------------|


                                                                             
-----------------------|---------------------|--------------------|----|----|
--2/-3----2------------|---------------------|--------------------|----|----|
---------------2-------|---------------------|--2-----------------|----|----|
--------------------2--|----0---------0------|--------------------|----|----|
-----------------------|---------4-----------|---------0----------|----|----|
-----------------------|---------------------|--------------------|----|----|


           
----|----||
----|----||
----|----||
----|----||
----|----||
----|----||
Comments