Yellowcard - Rock Star Land Chords & Tabs

 

Rock Star Land Chords & Tabs

Yellowcard Chords & Tabs

Version: 1 Type: Tab 0 ratings
1 star 2 stars 3 stars 4 stars 5 stars
comments

Rock Star Land Tab

e|--------------------------------------------------------|
B|--------------------------------------------------------|
G|--------------------------------------------------------|
D|--------------------------------------------------------|
A|-9999-7777-55555555-9999-12121212-7-7-7-7-7-7-7-7-7-----|
E|-7777-5555-33333333-7777-10101010-5-5-5-5-5-5-5-5-5-----|
[ Tab from: http://www.guitartabs.cc/tabs/y/yellowcard/rock_star_land_tab.html ]
e|------------------------------------------------------------|
B|-------10---------------------------------------------------|
G|-11----------11----------11----9----14----------------------|
D|-------------------12---------------------12----11----------|
A|------------------------------------------------------0-----|
E|------------------------------------------------------------|

e|---------------------------------------------------------------------------|
B|---------------------------------------------------------------------------|
G|---------------------------------------------------------------------------|
D|-------------4-5-----------------------------------------------------------|
A|-9----7----5-------9----12----7--------------------------------------------|
E|-7----5----3-------7----10----5--------------------------------------------|
Comments