Yellowcard - Powder Chords & Tabs

 

Powder Chords & Tabs

Yellowcard Chords & Tabs

Version: 2 Type: Tab 0 ratings
1 star 2 stars 3 stars 4 stars 5 stars
comments

Powder Tab

Submitted By: Mero
EMail: botello_marty@hotmail.com


Tuning: (DADGBE)

GUITAR 1
--------------
Intro: 
e|---------------------------------------------------------------------------|
B|---------------------------------------------------------------------------|
G|---------------------------------------------------------------------------|
D|-5-5~----------------------------------------------------------------------|
A|-5-5~--5-3-3-3--3-0-0--0-0-1-1--3--5-5--5-3-3-3--3-0-0--0-0-1-1------------|
D|-5-5~--5-3-3-3--3-0-0--0-0-1-1--3--5-5--5-3-3-3--3-0-0--0-0-1-1------------|
         . . . .  . . .  . . . .  .  . .  . . . .  . . .  . . . .
Verse: "Lying soaked in..."  (Repeat Intro a few times)
Pre-Chorus: "Forever..."
e|---------------------------------------------------------------------------|
B|---------------------------------------------------------------------------|
G|-3-------3-------3-------3-------------------------------------------------|
D|-3-3-3-3-3-3-3-3-3-3-3-3-3-3-3-3--3-------3-------3-------3----------------|
A|-1-1-1-1-1-1-1-1-1-1-1-1-1-1-1-1--3-3-3-3-3-3-3-3-3-3-3-3-3-3-3-3----------| 
D|----------------------------------3-3-3-3-3-3-3-3-3-3-3-3-3-3-3-3----------|
     . . .   . . .   . . .   . . .    . . .   . . .   . . .   . . .

e|---------------------------------------------------------------------------|
B|---------------------------------------------------------------------------|
G|---------------------------------------------------------------------------|
D|-1-------1-------1-------1--------3-3--3-3--3-3--3-3--3-3-3-3--------------|
A|-1-1-1-1-1-1-1-1-1-1-1-1-1-1-1-1--3-3--3-3--3-3--3-3--3-3-3-3--------------|
D|-1-1-1-1-1-1-1-1-1-1-1-1-1-1-1-1--3-3--3-3--3-3--3-3--3-3-3-3--------------|
     . . .   . . .   . . .   . . .      


Chorus: "Crush it up, Crush it up..."
e|---------------------------------------------------------------------------|
B|---------------------------------------------------------------------------|
G|-3-3-3-3-3-3-3-3-3-3-3-3-3-3-3-3-------------------------------------------|
D|-3-3-3-3-3-3-3-3-3-3-3-3-3-3-3-3--3-3-3-3-3-3-3-3-3-3-3-3-3-3-3-3----------|
A|-1-1-1-1-1-1-1-1-1-1-1-1-1-1-1-1--3-3-3-3-3-3-3-3-3-3-3-3-3-3-3-3----------| 
D|----------------------------------3-3-3-3-3-3-3-3-3-3-3-3-3-3-3-3----------|
    
e|---------------------------------------------------------------------------|
B|---------------------------------------------------------------------------|
G|---------------------------------------------------------------------------|
D|-1-1-1-1-1-1-1-1-1-1-1-1-1-1-1-1--3-3-3-3-3-3-3-3-3-3-3-3-3-3-3-3----------|
A|-1-1-1-1-1-1-1-1-1-1-1-1-1-1-1-1--3-3-3-3-3-3-3-3-3-3-3-3-3-3-3-3----------|
D|-1-1-1-1-1-1-1-1-1-1-1-1-1-1-1-1--3-3-3-3-3-3-3-3-3-3-3-3-3-3-3-3----------|

Interlude: Repeat Intro

Verse: "Swallowed like the medicine..." (No guitar 1)

Repeat Pre Chorus

Repeat Chorus
[ Tab from: http://www.guitartabs.cc/tabs/y/yellowcard/powder_tab_ver_2.html ]
Violin Solo: (kinda hard to hear) 
e|---------------------------------------------------------------------------|
B|---------------------------------------------------------------------------|
G|-3-3-3-3-3-3-3-3-3-3-3-3-3-3-3-3-------------------------------------------|
D|-3-3-3-3-3-3-3-3-3-3-3-3-3-3-3-3--3-3-3-3-3-3-3-3-3-3-3-3-3-3-3-3----------|
A|-1-1-1-1-1-1-1-1-1-1-1-1-1-1-1-1--3-3-3-3-3-3-3-3-3-3-3-3-3-3-3-3----------| 
D|----------------------------------3-3-3-3-3-3-3-3-3-3-3-3-3-3-3-3----------|
    
e|---------------------------------------------------------------------------|
B|---------------------------------------------------------------------------|
G|---------------------------------------------------------------------------|
D|-1-1-1-1-1-1-1-1-3-3-3-3-3-3-3-3--1-1-1-1-1-1-1-1-3-3-3-3-3-3-3-3----------|
A|-1-1-1-1-1-1-1-1-3-3-3-3-3-3-3-3--1-1-1-1-1-1-1-1-3-3-3-3-3-3-3-3----------|
D|-1-1-1-1-1-1-1-1-3-3-3-3-3-3-3-3--1-1-1-1-1-1-1-1-3-3-3-3-3-3-3-3----------|

Bridge: "Theres power..." (repeat the violin solo twice)

Chorus: "Crush it up, Crush it up..."
e|---------------------------------------------------------------------------|
B|---------------------------------------------------------------------------|
G|---3-----------------------------------------------------------------------|
D|-3-3------3------1--------------------3-3-3-3-3----------------------------|
A|-1-1--0-3-3--0-1-1--3-3-3-3-3-3-3-3-3-3-3-3-3-3----------------------------|
D|------0-3-3--0-1-1--3-3-3-3-3-3-3-3-3-3-3-3-3-3----------------------------|
   .    . .    . .    . . . . . . . . . . . . . .
                      (gradual release from p.m)

Chorus Cont'd: (Repeat First Chorus a whole bunch of times)

Outro: "I'm Falling..."
e|---------------------------------------------------------------------------|
B|---------------------------------------------------------------------------|
G|---------------------------------------------------------------------------|
D|-3-3-3-3-3-3-3-3-3-3-3-3-3-3-3-3-------------------------------------------|
A|-1-1-1-1-1-1-1-1-1-1-1-1-1-1-1-1--3-3-3-3-3-3-3-3-3-3-3-3-3-3-3-3----------| 
D|----------------------------------3-3-3-3-3-3-3-3-3-3-3-3-3-3-3-3----------|
   . . . . . . . . . . . . . . . .  . . . . . . . . . . . . . . . .
e|---------------------------------------------------------------------------|
B|---------------------------------------------------------------------------|
G|---------------------------------------------------------------------------|
D|---------------------------------------------------------------------------|
A|-1-1-1-1-1-1-1-1-1-1-1-1-1-1-1-1--3-3-3-3-3-3-3-3-3-3-3-3-3-3-3-3----------|
D|-1-1-1-1-1-1-1-1-1-1-1-1-1-1-1-1--3-3-3-3-3-3-3-3-3-3-3-3-3-3-3-3----------|
   . . . . . . . . . . . . . . . .  . . . . . . . . . . . . . . . .

e|---------------------------------------------------------------------------|
B|---------------------------------------------------------------------------|
G|---3-----------------------------------------------------------------------|
D|-3-3-----------------------------------------------------------------------|
A|-1-1-----------------------------------------------------------------------|
D|---------------------------------------------------------------------------|
   . 

GUITAR 2
------------
Intro: (Same as guitar 1)

Verse: (Same as guitar 1)

Pre-Chorus: (Same as guitar 1)

Chorus: (Same as guitar 1)

Interlude: (Same as guitar 1)

Verse: (No guitar 2)


Verse Cont'd: "Wonder if he'll..."
e|---------------------------------------------------------------------------|
B|---------------------------------------------------------------------------|
G|---------------------------------------------------------------------------|
D|---------8-8--------------7-7--------------10-10---------------------------|
A|-----5-5-----5-5------3-3-----3-3------8-8-------8-8--1-1-1-1-1-1-1-1------|
D|-5-5--------------3-3--------------7-7----------------1-1-1-1-1-1-1-1------|
   . . . .     . .  . . . .     . .  . . . .       . .  . . . . . . . .

Pre-Chorus: (Same as guitar 1)

Chorus: (Same as guitar 1)

Violin Solo: (Same as guitar 1)

Bridge: (Same as guitar 1)

Chorus: (Same as guitar 1)

Chorus Cont'd: (Same as guitar 1)

Outro: (Same as guitar 1)
Comments