Yellowcard - Only One Chords & Tabs

 

Only One Chords & Tabs

Yellowcard Chords & Tabs

Version: 8 Type: Tab 0 ratings
1 star 2 stars 3 stars 4 stars 5 stars
comments

Only One Tab

   
Yellowcard - Only One

This is my very first Tablature... i hope i got this right... this is my favorite song
of all the song ive listen to... and this song reminds me of a very special person in
my heart... emossentialist..\m/

Tabbed by - Popo
Email - peterocson@yahoo.com

/ - Slide Up
* - Palm Mute

Order:

intro/verse
Pre-Chorus
Chorus
intro/verse
Pre-Chorus
Chorus
Solo
Bridge
Chorus
End

Intro / Verse

e|----4----|
B|------5--|
G|--4------| 6x
D|---------|
A|---------|
E|---------|

e|------7--|
B|----4----|
G|--5------| 5x
D|---------|
A|---------|
E|---------|

e|------5--|
B|----4----|
G|--5------| 2x
D|---------|
A|---------|
E|---------|

e|------4--|
B|----4----|
G|--5------| 3x
D|---------|
A|---------|
E|---------|

e|------7--|
B|----4----|
G|--5------| 2x
D|---------|
A|---------|
E|---------|

e|------5--|
B|----4----|
G|--5------| 2x
D|---------|
A|---------|
E|---------|

e|------4--|
B|----4----|
G|--5------| 1x
D|---------|
A|---------|
E|---------|


Pre-chorus:

e|------------------|
B|------------------|
G|-4444444444444444-|
D|-4444444444444444-|
A|-2222222222222222-|
E|------------------|
  ******************

e|------------------|
B|------------------|
G|-6666666666666666-|
D|-6666666666666666-|
A|-4444444444444444-|
E|------------------|
  ******************

e|------------------|
B|------------------|
G|-2222222222222222-|
D|-2222222222222222-|
A|-0000000000000000-|
E|------------------|
  ******************

e|-----------|
B|-----------|
G|-444444444-|
D|-444444444-|
A|-222222222-|
E|-----------|
  ***********

Chorus:

e|------------------|
B|------------------|
G|-6666666666666666-|
D|-6666666666666666-|
A|-4444444444444444-|
E|------------------|

e|------------------|
B|------------------|
G|-2222222222222222-|
D|-2222222222222222-|
A|-0000000000000000-|
E|------------------|
[ Tab from: http://www.guitartabs.cc/tabs/y/yellowcard/only_one_tab_ver_8.html ]
e|------------------|
B|------------------|
G|-9999999999999999-|
D|-9999999999999999-|
A|-7777777777777777-|
E|------------------|

e|------------------|
B|------------------|
G|-4444444444444444-|
D|-4444444444444444-|
A|-2222222222222222-|
E|------------------|


Solo:

e|--------------------------------------------------|
B|---------------9-9-7------------------------------|
G|-6-8-8/10~-6-6-------6-6---6-8-8/10~-6-6-10-10-8-8|
D|--------------------------------------------------|
A|--------------------------------------------------|
E|--------------------------------------------------|

e|--------------------------------------------------|
B|--------------12-12-10----------------------------|
G|-9-11-13~-9-9----------9-9----9-11-11/13~---------|
D|--------------------------------------------------|
A|--------------------------------------------------|
E|--------------------------------------------------|


e|--------------------------------------------------|
B|--------------------------------------------------|
G|---13-14-13--------13-14-13-----------11-9-8------|
D|------------14-11-----------14-11--14-------------|
A|--------------------------------------------------|
E|--------------------------------------------------|


Bridge:(break every 5 times listen to
        it to understand what I mean)

e|------5--|
B|----4----|
G|--5------| 5x
D|---------|
A|---------|
E|---------|

 ---BREAK---

e|------5--|
B|----4----|
G|--5------| 5x
D|---------|
A|---------|
E|---------|

 ---BREAK---

e|------5--|
B|----4----|
G|--5------| 5x
D|---------|
A|---------|
E|---------|

 ---BREAK---

e|------5--|
B|----4----|
G|--5------| 5x
D|---------|
A|---------|
E|---------|

 ---BREAK---

e|------5--|
B|----4----|
G|--5------| 5x
D|---------|
A|---------|
E|---------|

 ---BREAK---

e|------5--|
B|----4----|
G|--5------| 5x
D|---------|
A|---------|
E|---------|

 ---BREAK---

e|------5--|
B|----4----|
G|--5------| 5x
D|---------|
A|---------|
E|---------|

---BREAK---

e|------5--|
B|----4----|
G|--5------| 5x
D|---------|
A|---------|
E|---------|

Then Chorus

End

End it With
(Let it ring until it fades out)

e|---|
B|---|
G|-6-|
D|-6-|
A|-4-|
E|---|
Comments