Yellowcard - Only One Chords & Tabs

 

Only One Chords & Tabs

Yellowcard Chords & Tabs

Version: 6 Type: Tab 0 ratings
1 star 2 stars 3 stars 4 stars 5 stars
comments

Only One Tab

This is a great song and I know that this tab is 100% accurate.  So, don't take my word for it, try it
out!  Oh yeah, this is just the guitars.  If you want the violin, then I'll add that
later if you guys want.

*Standard Tuning*

Guitar 1 - Ryan Key
Guitar 2 - Ben Harper

Guitar 1
--------

(0:00)Play once for intro, twice for verse, total of three times
Play it on your clean channel.  The recording uses tremolo, but they just play it
clean when they do live performances.
--0------0-----0-----0-----0----|----0-----0-----0-----0-----0--|
----0------0-----0-----0-----0--|--0-----0-----0-----0-----0---0|
1-----1------1-----1-----1-----1|2-----2-----2-----2-----2------|
--------------------------------|-------------------------------|
--------------------------------|-------------------------------|
--------------------------------|-------------------------------|

|----0-----0----------0-----0----|----4-----4-----2-----0-----2--|
|--0-----0------0---0-----0-----0|--0-----0-----0-----0-----0---0|
|4-----4------4---6-----6-----6--|2-----2-----2-----2-----2------|
|--------------------------------|-------------------------------|
|--------------------------------|-------------------------------|
|--------------------------------|-------------------------------|

(0:35) Pre-Chorus - Palm Mute - Play Once - Kick in the distortion
------------------|------------------|
------------------|------------------|
-4444444444444444-|-6666666666666666-|
-4444444444444444-|-6666666666666666-|
-2222222222222222-|-4444444444444444-|
------------------|------------------|
 ****************   ****************  
------------------|------------------|
------------------|------------------|
------------------|-4444444444444444-|
-2222222222222222-|-4444444444444444-|
-2222222222222222-|-2222222222222222-|
-0000000000000000-|------------------|
 ****************   ****************

(0:47) Chorus - Play twice
------------------|------------------|
------------------|------------------|
-6666666666666666-|-2222222222222222-|
-6666666666666666-|-2222222222222222-|
-4444444444444444-|-0000000000000000-|
------------------|------------------|

------------------|------------------|
------------------|------------------|
------------------|-4444444455555555-|
-2222222222222222-|-4444444455555555-|
-2222222222222222-|-2222222233333333-|
-0000000000000000-|------------------|


(1:11)Play Intro/Verse - start singing the second time through
(1:46)Play Pre-Chorus
(1:58)Play Chorus twice
(2:23)Bridge - let |-6-| ring out.
                   |-6-|
                   |-4-|
Then, play the Chorus twice *Note* A pickslide sounds really cool before the bridge,
so consider it :)
(2:48)Verse 3/Interlude - A Guitar 1 part isn't needed, but you can add it if you
want.  Ryan doesn't play it live, but it's in the recording.  If you want, just play
the Intro/Verse twice.
(3:12)Chorus - Play four times and let |-6-| ring out.
                                       |-6-|
                                       |-4-|

Guitar 2
--------
[ Tab from: http://www.guitartabs.cc/tabs/y/yellowcard/only_one_tab_ver_6.html ]
(0:00)Play once for intro, twice for verse, total of three times
Play it on your clean channel.  The recording uses tremolo, but they just play it
clean when they do live performances.
-------------------------------|----7-----7-----7-----7-----7---|
--9-----9-----9----9-----9-----|--0-----0-----0-----0-----0-----|
----9-----9----9-----9-----9---|--------------------------------|
9-----9-----9----9-----9-----9-|7-----7-----7-----7-----7-----7-|
-------------------------------|--------------------------------|
-------------------------------|--------------------------------|

|----0-----0----------0-----0-----|----7----7-----5----4----5---|
|--0-----0------0---0-----0-----0-|--0----0-----0----0----0-----|
|8-----8------8---9-----9-----9---|---------------------------7-|
|---------------------------------|7----7-----7----7----7-------|
|---------------------------------|-----------------------------|
|---------------------------------|-----------------------------|


(0:35) Pre-Chorus - Play Once
|------------------------------------------------------------------------|
|------------------------------------------------------------------------|
|-----9-----9---9------9-----9---9-------9------9---9-------9------9---9-|
|-9-9---9-9---9----9-9---9-9---9----11-11--11-11--11--11-11--11-11--11---|
|------------------------------------------------------------------------|
|------------------------------------------------------------------------|

|----------------------------------------------------------------------|
|----------------------------------------------------------------------|
|-9--9--9--9--9--9--9--9--9--9--9--9--9--9--8--8--8--8--8-----9----11--|
|----------------------------------------------------------11----11----|
|----------------------------------------------------------------------|
|----------------------------------------------------------------------|

(0:47) Chorus - Play twice
------------------|------------------|
------------------|------------------|
-6666666666666666-|-9999999999999999-|
-XXXXXXXXXXXXXXXX-|-XXXXXXXXXXXXXXXX-|
-4444444444444444-|-7777777777777777-|
------------------|------------------|

------------------|------------------|
------------------|------------------|
-9999999999999999-|-4444444455555555-|
-XXXXXXXXXXXXXXXX-|-XXXXXXXXXXXXXXXX-|
-7777777777777777-|-2222222233333333-|
------------------|------------------|

(1:11)Play Intro/Verse - start singing the second time through
(1:46)Play Pre-Chorus
(1:58)Play Chorus twice
(2:23)Bridge - I broke the solo up in peices so it's easier.    
-----------------|------------------------------|-------------|
---------------7~|-------10-10-8--------------7~|-----9-9-7-7~|
-6---------7-9---|-7-7--------------7---7--9----|-9-9---------|
-6---------------|----------------9---9---------|-------------|
-4---------------|------------------------------|-------------|
-----------------|------------------------------|-------------|

-------|-----------------------------|-----------|-------------|-----------|
-----9~|-----12-12-10--------------9~|9h10p9-----|9h10p9-------|-----------|
9-11---|-9-9-------------9----9-11---|------9----|------9------|9--11--9--8|
-------|--------------11---11--------|--------11~|--------11---|-----------|
-------|-----------------------------|-----------|-------------|-----------|
-------|-----------------------------|-----------|-------------|-----------|

(2:48)Verse 3/Interlude - Play Intro/Verse twice
(3:12)Chorus - Play four times and let |-6-| ring out.
                                       |-6-|
                                       |-4-|

That's it!  Enjoy!
Comments