Yellowcard - Only One Chords & Tabs

 

Only One Chords & Tabs

Yellowcard Chords & Tabs

Version: 5 Type: Tab 0 ratings
1 star 2 stars 3 stars 4 stars 5 stars
comments

Only One Tab

----------------------------------------------------------------------------
			     ONLY ONE - YellowCard
----------------------------------------------------------------------------

Tabbed by: Tyler
Email: YellowCard2599@hotmail.com

Tuning: Standard


e|----------------------------------------------------------------|
B|---------------9-9-7--------------------------------------------|
G|-6-8-8/10~-6-6-------6-6---6-8-8/10~-6-6-9-9-8-8----------------|
D|-------------------------6--------------------------------------|
A|----------------------------------------------------------------|
E|----------------------------------------------------------------|
[ Tab from: http://www.guitartabs.cc/tabs/y/yellowcard/only_one_tab_ver_5.html ]
e|----------------------------------------------------------------|
B|--------------12-12-10------------------------------------------|
G|-9-11-13~-9-9----------9-9----9-11-11/13~-----------------------|
D|---------------------------9------------------------------------|
A|----------------------------------------------------------------|
E|----------------------------------------------------------------|


e|----------------------------------------------------------------|
B|----------------------------------------------------------------|
G|---13-14-13--------13-14-13-----------11------------------------|
D|------------14-11-----------14-11--14---------------------------|
A|----------------------------------------------------------------|
E|----------------------------------------------------------------|

| /  slide up
| \  slide down
| ~  vibrato

==========================================================================
Comments