Yellowcard - Only One Live Chords & Tabs

 

Only One Live Chords & Tabs

Yellowcard Chords & Tabs

Version: 1 Type: Bass Tab 0 ratings
1 star 2 stars 3 stars 4 stars 5 stars
comments

Only One Live Bass Tab

Intro ( Bass enters at 0:10 )
G -------------------|
D 6/86---------------|
A ------7-6----------|
E -----------7-5-4-0-|

Verse 1
G|---------------------------------|
D|---------------------------------|
A|--4~-4/7/0~--4--2~-4~-4/11-------| 3x
E|---------------------------------|

Pre-Chorus 1
G|--------------------------------------------------------------|R|
D|--------------------------------------------------------------|E|
A|-2222222222222222-4444444444444444------------------222222222-|S|
E|-----------------------------------0000000000000000-----------|T|

Chorus 1
G|----------------------------------------------------------------------|
D|----------------------------------------------------------------------|
A|-4444444444444444-0000000000000000------------------2222222233333333--|
E|-----------------------------------0000000000000000-------------------|

G|----------------------------------------------------------------------|
D|----------------------------------------------------------------------|
A|-4444444466667777-0000000000000000------------------2222222233333333--|
E|-----------------------------------0000000000000000-------------------|

2nd intro
G|---------------------------------|
D|---------------------------------|
A|--4~-4/7/0~--4--2~-4~-4/11-------| 1x
E|---------------------------------|

G -------------------|
D 6/86---------------|
A ------7-6----------|
E -----------7-5-4-0-|

G|---------------------------------|
D|---------------------------------|
A|--4~-4/7/0~--4--2~-4~-4/11-------| 2x
E|---------------------------------|

Pre-Chorus 2
G|----------------------------------------------------------------------|
D|----------------------------------------------------------------------|
A|-2222222222222222-4444444444444444------------------2222222222222222--|
E|-----------------------------------0000000000000000-------------------|

Chorus 2
G|----------------------------------------------------------------------|
D|----------------------------------------------------------------------|
A|-4444444444444444-0000000000000000------------------2222222233333333--|
E|-----------------------------------0000000000000000-------------------|
[ Tab from: http://www.guitartabs.cc/tabs/y/yellowcard/only_one_live_btab.html ]
G|----------------------------------------------------------------------|
D|----------------------------------------------------------------------|
A|-4444444466667777-0000000000000000------------------2222222233333333--|
E|-----------------------------------0000000000000000-------------------|

Interlude
G|-----|------------------------|
D|-----|------------------------|
A|-4~--|-/11-11-11-11-11-11-11--|
E|-----|------------------------|

G|----------------------------------------------------------------------|
D|----------------------------------------------------------------------|
A|-4444444444444444-0000000000000000------------------2222222233333333--|
E|-----------------------------------0000000000000000-------------------|


G|--------------------------------------------------------|------------------|
D|-----------------------------------------------5h6h5----|-5h6h5------------|
A|-444444444444----000000000000-----------22222-------5---|------5----22222--|
E|------------------------------00000000----------------7-|------------------|


Breakdown (and I know....)
G|--/9--6~----4~-------------------------|
D|---------------------------------------|
A|---------------0~--------------2~--3~--|
E|--------------------4~-0~---4~---------|

Last Chorus
G|----------------------------------------------------------------------|
D|----------------------------------------------------------------------|
A|-4444444444444444-0000000000000000------------------2222222233333333--|
E|-----------------------------------0000000000000000-------------------|

G|----------------------------------------------------------------------|
D|----------------------------------------------------------------------|
A|-4444444466667777-0000000000009999-7777777777777777-6666666699999999--|
E|----------------------------------------------------------------------|

G|----------------------------------------------------------------------|
D|----------------------------------------------------------------------|
A|-4444444444444444-0000000000000000-7777777777777777-2222222233333333--|
E|----------------------------------------------------------------------|

G|----------------------------------------------------------------------|
D|----------------------------------------------------------------------|
A|-4444444444444444-0000000000000000-7777777777777777-6666666699999999--|
E|----------------------------------------------------------------------|

End on
G|-----|
D|-----|
A|-4~--|
E|-----|
Comments