Yellowcard - Only One Chords & Tabs

 

Only One Chords & Tabs

Yellowcard Chords & Tabs

Version: 1 Type: Bass Tab 0 ratings
1 star 2 stars 3 stars 4 stars 5 stars
comments

Only One Bass Tab

Only One
Tabbed by PunKKiD 182
This is not the one that Pete played at the Pepsi Smash concert...this one is from the original track

* ^ - Pull up ( i don't know what it's called...someone pls tell me )
  \ - Slide down
  / - Slide up

Intro ( Bass enters at 0:10 )
G|--------|
D|--------|
A|--------|
E|---5^---|

Verse 1 ( 0:12 ) 
G|----------------------------------|
D|----------------------------------|
A|--4~--7\--0~--4\--2~-4~-0----11\--| x2
E|----------------------------------|

Pre-Chorus 1 ( 0:35 )
G|--------------------------------------------------------------R--|
D|--------------------------------------------------------------E--|
A|-2222222222222222-4444444444444444------------------222222222-S--|
E|-----------------------------------0000000000000000-----------T--|

Chorus 1 ( 0:47 )
G|----------------------------------------------------------------------|
D|----------------------------------------------------------------------|
A|-4444444444444444-0000000000000000------------------2222222233333333--|
E|-----------------------------------0000000000000000-------------------|

G|----------------------------------------------------------------------|
D|----------------------------------------------------------------------|
A|-4444444466667777-0000000000000000------------------2222222233333333--|
E|-----------------------------------0000000000000000-------------------|

Pre-Verse / Verse 2 ( 1:10 )
G|---------------------------------------------------------------------|
D|---------------------------------------------------------------------|
A|-444444444444-7\--000000000000-4\--2222222244444444000000000000-11\--| x3
E|---------------------------------------------------------------------|

Pre-Chorus 2 ( 1:46 )
G|----------------------------------------------------------------------|
D|----------------------------------------------------------------------|
A|-2222222222222222-4444444444444444------------------2222222222222222--|
E|-----------------------------------0000000000000000-------------------|

Chorus 2 ( 1:58 )
G|----------------------------------------------------------------------|
D|----------------------------------------------------------------------|
A|-4444444444444444-0000000000000000------------------2222222233333333--|
E|-----------------------------------0000000000000000-------------------|
[ Tab from: http://www.guitartabs.cc/tabs/y/yellowcard/only_one_btab.html ]
G|----------------------------------------------------------------------|
D|----------------------------------------------------------------------|
A|-4444444466667777-0000000000009999-7777777777777777-6666666699999999--|
E|----------------------------------------------------------------------|

Interlude ( 2:21 )
G|-----|------------------------|
D|-----|------------------------|
A|-4~--|-/11-11-11-11-11-11-11--|
E|-----|------------------------|

G|---------------------------------------------------------------(Twelve)--------(Eleven)--|
D|-----------------------------------------------------------------------------------------|
A|-444444444444-9\--000000000000-/4-4-4-4-2222222244444444-121212121212121212121211111111--|
E|-----------------------------------------------------------------------------------------|

G|---------------------------------------------------------2-1---------------------|
D|----------------------------------------------6-4-----------2--------------------|
A|-444444444444-9\--000000000000-/4-4-4-4--22222---7-44444-------000000000000------|
E|---------------------------------------------------------------------------4444--|

Breakdown ( 2:48 but bass enters at 2:59 )
G|--/9--6~----4~-------------------------|
D|---------------------------------------|
A|---------------0~--------------2~--3~--|
E|--------------------4~-0~---4~---------|

Last Chorus ( 3:12 )
G|----------------------------------------------------------------------|
D|----------------------------------------------------------------------|
A|-4444444444444444-0000000000000000------------------2222222233333333--|
E|-----------------------------------0000000000000000-------------------|

G|----------------------------------------------------------------------|
D|----------------------------------------------------------------------|
A|-4444444466667777-0000000000009999-7777777777777777-6666666699999999--|
E|----------------------------------------------------------------------|

G|----------------------------------------------------------------------|
D|----------------------------------------------------------------------|
A|-4444444444444444-0000000000000000-7777777777777777-2222222233333333--|
E|----------------------------------------------------------------------|

G|----------------------------------------------------------------------|
D|----------------------------------------------------------------------|
A|-4444444444444444-0000000000000000-7777777777777777-6666666699999999--|
E|----------------------------------------------------------------------|

End on ( 3:59 )
G|-----|
D|-----|
A|-4~--|
E|-----|

That's it...
Comments