Yellowcard - Ocean Avenue Chords & Tabs

 

Ocean Avenue Chords & Tabs

Yellowcard Chords & Tabs

Version: 6 Type: Tab 0 ratings
1 star 2 stars 3 stars 4 stars 5 stars
comments

Ocean Avenue Tab

   
-------------------------------------------------------------------------------
			     Ocean Avenue - Yellowcard
-------------------------------------------------------------------------------
Tabbed by: Colbuddy
Email: Colinawthnowena@netscape.net

Tuning: Drop D

Opening
e|---------------------------------------------------------------------------|
B|---------------------------------------------------------------------------|
G|---------------------------------------------------------------------------|
D|-2-2-2-2---4-44444---0-0-0-0---0-00000-------------------------------------|
A|-2-2-2-2---4-44444---0-0-0-0---0-00000-------------------------------------|
D|-2-2-2-2---4-44444---0-0-0-0---0-00000-------------------------------------|

Verse
Theres a place off......
e|---------------------------------------------------------------------------|
B|---------------------------------------------------------------------------|
G|---------------------------------------------------------------------------|
D|-2-2-2-2---4-44444---0-0-0-0---0-00000-------------------------------------|
A|-2-2-2-2---4-44444---0-0-0-0---0-00000-------------------------------------|
D|-2-2-2-2---4-44444---0-0-0-0---0-00000-------------------------------------|

Tonight.....
e|---------------------------------------------------------------------------|
B|---------------------------------------------------------------------------|
G|----9------9---9----------9------9---9-------------------------------------|
D|--6---6-/7---7----------6---6-/7---7---------------------------------------|
A|-----------------~9--------------------9-7-~9------------------------------|
D|---------------------------------------------------------------------------|

Chrous
If I could find you now......
e|---------------------------------------------------------------------------|
B|---------------------------------------------------------------------------|
G|---------------------------------------------------------------------------|
D|-22222222--44444444--00000000--00000000------------------------------------|
A|-22222222--44444444--00000000--00000000------------------------------------|
D|-22222222--44444444--00000000--00000000------------------------------------|

Second Verse
Theres a piece of you.....
e|---------------------------------------------------------------------------|
B|---------------------------------------------------------------------------|
G|---------------------------------------------------------------------------|
D|-9-9-9-9---11--11-11-11-11-11---7-7-7-7---7-77777--------------------------|
A|-7-7-7-7---9---9--9--9--9--9----5-5-5-5---5-55555--------------------------|
D|---------------------------------------------------------------------------|

Tonight....
e|---------------------------------------------------------------------------|
B|---------------------------------------------------------------------------|
G|----9------9---9----------9------9---9-------------------------------------|
D|--6---6-/7---7----------6---6-/7---7---------------------------------------|
A|-----------------~9--------------------9-7-~9------------------------------|
D|---------------------------------------------------------------------------|
[ Tab from: http://www.guitartabs.cc/tabs/y/yellowcard/ocean_avenue_tab_ver_6.html ]
Chrous
If I could find you now......
e|---------------------------------------------------------------------------|
B|---------------------------------------------------------------------------|
G|---------------------------------------------------------------------------|
D|-22222222--44444444--00000000--00000000------------------------------------|
A|-22222222--44444444--00000000--00000000------------------------------------|
D|-22222222--44444444--00000000--00000000------------------------------------|

Opening to Bridge
e|-0-0-0-0---0-00000---0-0-0-0---0-00000-------------------------------------|
B|-0-0-0-0---0-00000---0-0-0-0---0-00000-------------------------------------|
G|-2-2-2-2---2-22222---2-2-2-2---2-22222-------------------------------------|
D|-2-2-2-2---2-22222---2-2-2-2---2-22222-------------------------------------|
A|-0-0-0-0---0-00000---0-0-0-0---0-00000-------------------------------------|
D|---------------------------------------------------------------------------|

Bridge
Guitar 1
e|----------0----------------0----------------0----------------0-------------|
B|------0-----0---0------0-----0---0------0-----0---0------0-----0---0-------|
G|----2---2-----2------2---2-----2------2---2-----2------2---2-----2---------|
D|--6----------------6----------------6----------------6---------------------|
A|---------------------------------------------------------------------------|
D|---------------------------------------------------------------------------|

Bridge
Guitar 2
e|---------------------------------------------------------------------------|
B|---------------------------------------------------------------------------|
G|-22222222------------------------------------------------------------------|
D|-22222222--44444444--2222--66-77--00000000---------------------------------|
A|-00000000--44444444--2222--66-77--00000000---------------------------------|
D|-----------44444444--2222--66-77--00000000---------------------------------|

Chrous
If I could find you now......
e|---------------------------------------------------------------------------|
B|---------------------------------------------------------------------------|
G|---------------------------------------------------------------------------|
D|-22222222--44444444--00000000--00000000------------------------------------|
A|-22222222--44444444--00000000--00000000------------------------------------|
D|-22222222--44444444--00000000--00000000------------------------------------|

Outro
e|---------------------------------------------------------------------------|
B|---------------------------------------------------------------------------|
G|-9-9-9-9---11--11-11-11-11-11--7-7-7-7---7-77777---9-9-9-9---11--11-11-11--|
D|-9-9-9-9---11--11-11-11-11-11--7-7-7-7---7-77777---9-9-9-9---11--11-11-11--|
A|-7-7-7-7---9---9--9--9--9--9---5-5-5-5---5-55555---7-7-7-7---9---9--9--9---|
D|---------------------------------------------------------------------------|

e|---------------------------------------------------------------------------|
B|---------------------------------------------------------------------------|
G|-11-11---7--6--4--2--------------------------------------------------------|
D|-11-11---7--6--4--2--------------------------------------------------------|
A|-9--9----5--4--2--0--------------------------------------------------------|
D|---------------------------------------------------------------------------|

| /  slide up
| \  slide down
| h  hammer-on
| p  pull-off
| ~  vibrate
| +  harmonic
| x  Mute note

Any Questions or Corrections e-mail me at colinawthnowena@netscape.net
===============================================================================
Comments