Yellowcard - Ocean Avenue Chords & Tabs

 

Ocean Avenue Chords & Tabs

Yellowcard Chords & Tabs

Version: 1 Type: Bass Tab 1 rating
1 star 2 stars 3 stars 4 stars 5 stars
comments

Ocean Avenue Bass Tab

Ocean Avenue by yellowcard 
Bass tab by matt

drop D tuning
 >> Let ring
 ( ) normal 1/16 tempo 


  Intro x8
G|----------------------------------------------------------------|
D|----------------------------------------------------------------|
A|----------------------------------------------------------------|
D|---2--2--2--2--4--4--4--4--4--4--0--0--0--0--0--0--0--0--0--0---|


  9th time Intro 
G|---------------------------------------------------------------------|
D|---------------------------------------------------------------------|
A|---------------------------------------------------------------------|
D|---2--2--2--2--4--4--4--4--4--4--(0-0-0-0-0-0-0-0-0-0-0-0-0-0-0-0)---|


  Chourus x3
G|-----------------------------------------------------------------------|
D|-----------------------------------------------------------------------|
A|-----------------------------------------------------------------------|
D|---(2-2-2-2-2-2-2-2-4-4-4-4-4-4-4-6-0-0-0-0-0-0-0-0-0-0-0-0-0-0-0-0)---|


  Verse x4
G|----------------------------------------------------------------|
D|----------------------------------------------------------------|
A|----------------------------------------------------------------|
D|---2--2--2--2--4--4--4--4--4--4--0--0--0--0--0--0--0--0--0--0---|


  5th time Verse
G|---------------------------------------------------------------------|
D|---------------------------------------------------------------------|
A|---------------------------------------------------------------------|
D|---2--2--2--2--4--4--4--4--4--4--(0-0-0-0-0-0-0-0-0-0-0-0-0-0-0-0)---|

[ Tab from: http://www.guitartabs.cc/tabs/y/yellowcard/ocean_avenue_btab.html ]
  Chourus x4
G|-----------------------------------------------------------------------|
D|-----------------------------------------------------------------------|
A|-----------------------------------------------------------------------|
D|---(2-2-2-2-2-2-2-2-4-4-4-4-4-4-4-6-0-0-0-0-0-0-0-0-0-0-0-0-0-0-0-0)---|


  Bridge I x1 (follow guatir tempo)
G|-----------------------------------------------|
D|-----------------------------------------------|
A|---0-0-0-0-0-0-0-0-0-0-0-0-0-0-0-0-0-0-0-0-0---|
D|-----------------------------------------------|

  Bridge II x3
G|----------------------------------|
D|----------------------------------|
A|----------------------------------|
D|---7-7>>---4-4>>---2>>--6-7-0>>---|


  Bridge II after 3rd time 
G|-----------------------------------------|
D|-----------------------------------------|
A|-----------------------------------------|
D|---(0-0-0-0-0-0-0-0-0-0-0-0-0-0-0-0-0)---|


  After Bridge II x1
G|-----------------------------------------------------------------------|
D|-----------------------------------------------------------------------|
A|-----------------------------------------------------------------------|
D|---(2-2-2-2-2-2-2-2-4-4-4-4-4-4-4-6-0-0-0-0-0-0-0-0-0-0-0-0-0-0-0-0)---|  


  After Muting x1
G|--------------------------------------------------|
D|--------------------------------------------------|
A|--------------------------------------------------|
D|------(4-4-4-6-0-0-0-0-0-0-0-0-0-0-0-0-0-0-0-0)---|


  Chorus x2
G|-----------------------------------------------------------------------|
D|-----------------------------------------------------------------------|
A|-----------------------------------------------------------------------|
D|---(2-2-2-2-2-2-2-2-4-4-4-4-4-4-4-6-0-0-0-0-0-0-0-0-0-0-0-0-0-0-0-0)---|


   Outro x1
G|---------------|     
D|---------------|    
A|---------------|    
D|---5-4-7-0>>---|    


Once you get the tempo down its a fairly easy song
if anyone has corrections or comments e-mail at Fatmatt542002@yahoo.com
Comments