Yellowcard - Ocean Avenue 2nd Guitar Part Chords & Tabs

 

Ocean Avenue 2nd Guitar Part Chords & Tabs

Yellowcard Chords & Tabs

Version: 1 Type: Tab 0 ratings
1 star 2 stars 3 stars 4 stars 5 stars
comments

Ocean Avenue 2nd Guitar Part Tab

ocean avenue 2nd guitar part

hi its iggy (greg) again with the long awaited 2nd guitar part for 
ocean avenue

Drop D tuning (dadgbe)
[ Tab from: http://www.guitartabs.cc/tabs/y/yellowcard/ocean_avenue_2nd_guitar_part_tab.html ]
after intro in first guitar
e-------------------------------------------------
b-------------------------------------------------
g-------------------------------------------------
d----6---7---7---4---6----7---7-------4-2-4-------
a------7---0---0-------7----0---0-----------------
d-------------------------------------------------
after 2nd verse
e-------------------------------------------------
b------------------7-------------------7---5--7---
g-------------------------------------------------
d---6---7----7----------6---7---7-----------------
a-----7---0----0----------7---0---0---------------
d-------------------------------------------------
chorus
e-------------------------------------------------
b-------------------------------------------------
g-------------------------------------------------
d-22222--44444--0000000000------------------------
a-22222--44444--0000000000------------------------
d-22222--44444--0000000000------------------------
bridge
e--------0----------------------------------------
b-----0----0----(8x)------------------------------
g-1h2---------------------------------------------
d-------------------------------------------------
a-------------------------------------------------
d-------------------------------------------------

well there you go sorry it took so long expect some more tabs
from underground hardcore artists soon 
laterz iggy
Comments