Yellowcard - Lights And Sounds Chords & Tabs

 

Lights And Sounds Chords & Tabs

Yellowcard Chords & Tabs

Version: 2 Type: Tab 0 ratings
1 star 2 stars 3 stars 4 stars 5 stars
comments

Lights And Sounds Tab

   
-------------------------------------------------------------------------------
			 Lights And Sounds - Yellowcard
-------------------------------------------------------------------------------

Tabbed by: wizard
Email: wizard7926@aol.com

Tuning: Drop D

**NEW NEW NEW**
Just saw them in concert less than a week ago, and this is exactly how they played
it.  Changes to the intro and the chorus.  Check it!

...
Yellowcard's hot-off-the-presses title track off their new record, Lights
And Sounds.. comments/additions welcome.

Intro(Repeat 4x)
e|---------------------------------------------------------------------------|
B|---------------------------------------------------------------------------|
G|---------------------------------------------------------------------------|
D|---99--0-4-55--0-5-77--0-7-99--7-7-----99--0-4-55--0-5-22--0-2/77--0-7-----|
A|---99--0-4-55--0-5-77--0-7-99--7-7-----99--0-4-55--0-5-22--0-2/77--0-7-----|
D|---99--0-4-55--0-5-77--0-7-99--7-7-----99--0-4-55--0-5-22--0-2/77--0-7-----|

Verse 1 (Repeat 4x)
"Hello you, how was the rest?.."
e|-----------------------------------------------------------------------------|
B|-----------------------------------------------------------------------------|
G|-----------------------------------------------------------------------------|
D|---9999-777-5-55-44-000-----99-7-99-7-5-55-44-000----------------------------|
A|---9999-777-5-55-44-000-----99-7-99-7-5-55-44-000----------------------------|
D|---9999-777-5-55-44-000-----99-7-99-7-5-55-44-000----------------------------|

Pre-Chorus (Repeat 3x)
"Nobody's there.."
e|---------------------------------------------------------------------------|
B|---------------------------------------------------------------------------|
G|-------------------------------------------------44--2---------------------|
D|---44-0--99--7--5~----------------OR-------44-0--44--2--5~-----------------|
A|---44-0--99--7--5~-------------------------44-0--22--2--5~-----------------|
D|---44-0--99--7--5~-------------------------44-0---------5~-----------------|

Chorus (Repeat 2x)
"Stop, turn.."
Guitar 1
e|---------------------------------------------------------------------------|
B|---------------------------------------------------------------------------|
G|----77-66-44---------------------------------------------------------------|
D|----77-66-44--77777777--99999999--555555--5-7/88888888---------------------|
A|----55-44-22--77777777--99999999--555555--5-7/88888888---------------------|
D|--------------77777777--99999999--555555--5-7/88888888---------------------|

Guitar 2 (figure out strumming, not exact)
e|---------------------------------------------------------------------------|
B|---------------------------------------------------------------------------|
G|-----14-14---12-12---11---11-11-11-11-11-11--------------------------------|
D|------x--x----x--x----x----x--x--x--x--x--x-------x3-----------------------|
A|-----12-12---10-10----9----9--9--9--9--9--9--------------------------------|
D|---------------------------------------------------------------------------|

[ Tab from: http://www.guitartabs.cc/tabs/y/yellowcard/lights_and_sounds_tab_ver_2.html ]
Verse 2 (Repeat 4x)
"Make it new, but stay in the lines.."
e|-----------------------------------------------------------------------------|
B|-----------------------------------------------------------------------------|
G|-----------------------------------------------------------------------------|
D|---9999-777-5-55-44-000-----99-7-99-7-5-55-44-000----------------------------|
A|---9999-777-5-55-44-000-----99-7-99-7-5-55-44-000----------------------------|
D|---9999-777-5-55-44-000-----99-7-99-7-5-55-44-000----------------------------|

Pre-Chorus (Repeat 2x)
"Nobody's there.."
e|---------------------------------------------------------------------------|
B|---------------------------------------------------------------------------|
G|-------------------------------------------------44--2---------------------|
D|---44-0--99--7--5~----------------OR-------44-0--44--2--5~-----------------|
A|---44-0--99--7--5~-------------------------44-0--22--2--5~-----------------|
D|---44-0--99--7--5~-------------------------44-0---------5~-----------------|

Bridge (Same as intro: repeat 7x)
"I've got a way to work this out.."
e|---------------------------------------------------------------------------|
B|---------------------------------------------------------------------------|
G|---------------------------------------------------------------------------|
D|---99--0-4-55--0-5-77--0-7-99--7-7-----99--0-4-55--0-5-22--0-2/77--0-7-----|
A|---99--0-4-55--0-5-77--0-7-99--7-7-----99--0-4-55--0-5-22--0-2/77--0-7-----|
D|---99--0-4-55--0-5-77--0-7-99--7-7-----99--0-4-55--0-5-22--0-2/77--0-7-----|

Bridge (On 1st measure of 8x)
"I've got a way!"
e|---------------------------------------------------------------------------|
B|---------------------------------------------------------------------------|
G|---------------------------------------------------------------------------|
D|---99x---------------------------------------------------------------------|
A|---99x---------------------------------------------------------------------|
D|---99x---------------------------------------------------------------------|

Outro (Same as chorus: Repeat 4x)
"Stop, turn.."
Guitar 1
e|---------------------------------------------------------------------------|
B|---------------------------------------------------------------------------|
G|----77-66-44---------------------------------------------------------------|
D|----77-66-44--77777777--99999999--555555--5-7/88888888---------------------|
A|----55-44-22--77777777--99999999--555555--5-7/88888888---------------------|
D|--------------77777777--99999999--555555--5-7/88888888---------------------|

Guitar 2 (figure out strumming, not exact)
e|---------------------------------------------------------------------------|
B|---------------------------------------------------------------------------|
G|-----14-14---12-12---11---11-11-11-11-11-11--------------------------------|
D|------x--x----x--x----x----x--x--x--x--x--x-------x3-----------------------|
A|-----12-12---10-10----9----9--9--9--9--9--9--------------------------------|
D|---------------------------------------------------------------------------|

| /  slide up
|   slide down
| h  hammer-on
| p  pull-off
| ~  vibrato
| x  Mute note
===============================================================================
Comments