Yellowcard - Lights And Sounds Chords & Tabs

 

Lights And Sounds Chords & Tabs

Yellowcard Chords & Tabs

Version: 4 Type: Bass Tab

Lights And Sounds Bass Tab

Intro
G:--------------------------------------------------------|
D:--------------------------------------------------------|
A:-22------------00-----22-----22------------------00-----|x2
D:----0-4-55-4-5----5-7----5-4----0-4-55-4-5-22-00----5-7-|

Verse 1
G:------------------------|
D:------------------------|
A:22-0-22-0---------------|x4
D:----------5555-444-22-0-|

PreChorus
G:-------------|   |-----------|
D:-------------|   |-----------|
A:-------------|x3 |-----------|
D:-44-0-99-7-5~|   |--55555555-|
[ Tab from: http://www.guitartabs.cc/tabs/y/yellowcard/lights_and_sounds_btab_ver_4.html ]
Chorus
G:------------------------------------------------------------------------|
D:------------------------------------------------------------------------|
A:------------------------------------22222222-22222222-11111111-11111111-|x2
D:00000000-00000000-44444444-44444444-------------------------------------|

Verse 2
G:44-2-44-2--------------|  |------------------------|
D:---------7777-666-44-2-|  |------------------------|
A:-----------------------|x4|-22-0-22-0--------------|x4
D:-----------------------|  |----------5555-444-22-0-|

PreChorus.....x1
Chorus........x2

Bridge
G:--------------------------------------------------------|
D:--------------------------------------------------------|
A:-22------------00-----22-----22------------------00-----|x5
D:----0-4-55-4-5----5-7----5-4----0-4-55-4-5-22-00----5-7-|

Chorus........x3

leave comments when you read this. i want to know if it sucks or not.