Yellowcard - Lights And Sounds Chords & Tabs

 

Lights And Sounds Chords & Tabs

Yellowcard Chords & Tabs

Version: 3 Type: Bass Tab

Lights And Sounds Bass Tab

Song  Lights And Sounds
Band  Yellowcard
Album  Lights And Sounds
Bassist  Peter Mosely
Tuning  Drop D


Intro  No bass until 0:11
G|-------------------------------------------------------------|
D|-------------------------------------------------------------|
A|-------------------------------------------------------------| x2
D|--99-0-4-55-4-5-77-5-7-99-5-7---99-0-4-55-4-5-22-0-2-77-5-7--|

Verse  0:28

G|------------------------------------------|
D|------------------------------------------| 
A|------------------------------------------| x2
D|--9999-77-55555-444---99-7-99-7-5555-444--|

Pre Chorus  0:40 

G|-----------------|
D|-----------------| 
A|-----------------| x3
D|--44-0-99-0-555--|

Chorus  0:48

G|------------------------------------------------------|
D|------------------------------------------------------| 
A|--5555555555555555------------------------------------|
D|-------------------4444444444444444-9999999999999999--|

G|----------------------|
D|----------------------| 
A|----------------------| x2
D|--888888888-77-55-44--|

Verse 2  1:11

G|------------------------------------------|
D|--9999-77-55555-444--99-7-99-7--5555-444--| 
A|------------------------------------------| x2
D|------------------------------------------|
[ Tab from: http://www.guitartabs.cc/tabs/y/yellowcard/lights_and_sounds_btab_ver_3.html ]
G|-----------------------------------------|
D|-----------------------------------------| 
A|-----------------------------------------| x2
D|--9999-77-55555-444--99-7-99-7-5555-444--|

Pre Chorus 2  1:34 

G|-----------------|
D|-----------------| 
A|-----------------| x2
D|--44-0-99-0-555--|

Chorus 2  1:40

G|------------------------------------------------------|
D|------------------------------------------------------| 
A|--5555555555555555------------------------------------|
D|-------------------4444444444444444-9999999999999999--|

G|----------------------|
D|----------------------| 
A|----------------------| x2
D|--888888888-77-55-44--|

Bridge  No bass until 2:26

G|------------------------------------------------------------|
D|------------------------------------------------------------|
A|------------------------------------------------------------| x4
D|--99-0-4-55-4-5-77-5-7-99-5-7--99-0-4-55-4-5-22-0-2-77-5-7--|

Chorus 3  2:48

G|------------------------------------------------------|
D|------------------------------------------------------| 
A|--5555555555555555------------------------------------|
D|-------------------4444444444444444-9999999999999999--|

G|----------------------|
D|----------------------| 
A|----------------------| x3
D|--888888888-77-55-44--|

There it is, one of my favorite songs off the new album. VERY fun to play. Enjoy!