Yellowcard - Life Of A Salesman Chords & Tabs

 

Life Of A Salesman Chords & Tabs

Yellowcard Chords & Tabs

Version: 3 Type: Tab 0 ratings
1 star 2 stars 3 stars 4 stars 5 stars
comments

Life Of A Salesman Tab

   
Tabbed by:prs-player128
Email:
This is the intro for life of a salesman by yellowcard I thought the other tabs were a
bit off especially on this part of the song. and after watching the DVD of there live
performances and listening to the song  I think I now know the correct way to play the
intro. This is my first tab so please go easy with the comments.
Tuning: standard
[ Tab from: http://www.guitartabs.cc/tabs/y/yellowcard/life_of_a_salesman_tab_ver_3.html ]
Guitar 1 Ben Harper  (with flanger and distortion)
e|---------------------------------------------------------------------------|
B|---------------------------------------------------------------------------|
G|---------------------------------------------------------------------------|
D|---------------------------------------------------------------------------|
A|----2 (keep playing note through out intro)--------------------------------|
E|---------------------------------------------------------------------------|
Guitar 2 Ryan Key (with distortion)
  G#m                                B5/F#
e|---------------------------------------------------------------------------|
B|---------------------------------------------------------------------------|
G|---------------------------------------------------------------------------|
D|---------------------------------------------------------------------------|
A|-2--2---2----2--2---2--2---2--2-----2-2---2----2--2---2--2-----2-----------|
E|-4--4---4----4--4---4--4---4--4-----2-2---2----2--2---2--2-----2---0-------|
 Guitar 2
  E5                               B5                          E5
e|---------------------------------------------------------------------------|
B|---------------------------------------------------------------------------| 
G|---------------------------------------------------------------------------|    
D|-----------------------------------4--4---4----4-----4---4-----------------|     
A|--2-2---2----2--2----2--2---2--2---2--2---2----2-----2---2-----2--2---2----|    
E|--0-0---0----0--0----0--0---0--0-------------------------------0--0---0----|     
Guitar 2                                                                       x2
e|---------------------------------------------------------------------------|     
B|---------------------------------------------------------------------------|     
G|---------------------------------------------------------------------------|    
D|---------------------------------------------------------------------------|     
A|---2--2-------------------------------------------------------------------| 
E|---0--0--------------------------------------------------------------------|
    After second time played guitar 2 does this  
   E5            PM---------|
e|---------------------------------------------------------------------------|
B|---------------------------------------------------------------------------|
G|---------------------------------------------------------------------------|
D|---------------------------------------------------------------------------|
A|--2--2---2--------2--2--2--------------------------------------------------|
E|--0--0---0--------0--0--0--------------------------------------------------|
Guitar 1 plays this and guitar 2 goes silent
e|---------------------------------------------------------------------------|
B|---------------------------------------------------------------------------|
G|---------------------------------------------------------------------------|
D|---------------------------------------------------------------------------|
A|----2-(x16)before-Ryan-sings-----------------------------------------------|
E|---------------------------------------------------------------------------|
Guitar 1 what's a dad for dad
e|---------------------------------------------------------------------------|
B|---------------------------------------------------------------------------|
G|---------------------------------------------------------------------------|
D|---------------------------------------------------------------------------|
A|-----------2 (x8)----------------------------------------------------------|
E|--------------------2(x8)--------------------------------------------------|
That's basically the start of the song the rest of the tabs seem ok on the rest 
Thanks for looking please rate thanks
Comments