Yellowcard - Life Of A Salesman Chords & Tabs

 

Life Of A Salesman Chords & Tabs

Yellowcard Chords & Tabs

Version: 1 Type: Tab 1 rating
1 star 2 stars 3 stars 4 stars 5 stars
comments

Life Of A Salesman Tab

   
YELLOWCARD
"LIFE OF A SALESMAN"

GUITAR 1: RYAN 
GUITAR 2: BEN

BOTH GUITARS DROPPED-D TUNING
(DADGBE)

~ = Let ring
h = Hammer On
p = Pull Off
b = Bend

*WHOLE SONG WITH DISTORTION*

INTRO:

Guitar 1 rest while guitar 2 plays:

E|---------------------------------------------------
B|---------------------------------------------------
G|---------------------------------------------------
D|--9------------------------------------------------
A|---------------------------------------------------
D|---------------------------------------------------

Hit this note with wah and flange

Guitar 1, bass, and drums come in after two measures and guitar 1 plays:

E|------------------------------------------------------------------
B|------------------------------------------------------------------
G|------------------------------------------------------------------
D|--6-6-6-6-6-6-6-6-4-4-4-4-4-4-4-4-2-2-2-2-2-2-2-2-9-9-9-9-4-4-4-4-
A|--6-6-6-6-6-6-6-6-4-4-4-4-4-4-4-4-2-2-2-2-2-2-2-2-9-9-9-9-4-4-4-4-
D|--6-6-6-6-6-6-6-6-4-4-4-4-4-4-4-4-2-2-2-2-2-2-2-2-9-9-9-9-4-4-4-4-

VERSE:
 
Guitar 1 rests for another two measures with guitar two still doing wah and comes back in with:

E|---------------------------------------------------
B|---------------------------------------------------
G|---------------------------------------------------
D|--9-9-9-9-4-4-4-4-2-2-2-2-6-6-6-6-4-4-4-4----------
A|--9-9-9-9-4-4-4-4-2-2-2-2-6-6-6-6-4-4-4-4----------
D|--9-9-9-9-4-4-4-4-2-2-2-2-6-6-6-6-4-4-4-4----------
P.M. . . . . . . . . . . . .

PRECHORUS

GUITAR 1:

E|---------------------------------------------------
B|---------------------------------------------------
G|---------------------------------------------------
D|---------------------------------------------------
A|---2-2---4-4-2-2-5-5---4-4-2-2---------------------
D|---2-2---4-4-2-2-5-5---4-4-2-2---------------------
P.M. . .   . . . . . .   . . . .

GUITAR 2:

E|---------------------------------------------------
B|---------------------------------------------------
G|--9--8--11--9--12--11--9--8------------------------
D|--x--x--x---x--x---x---x--x------------------------
A|--7--6--9---7--10--9---7--6------------------------
D|---------------------------------------------------

CHORUS:

BOTH GUITARS:

E|---------------------------------------------------------------------
B|---------------------------------------------------------------------
G|-4-4-4-4-4-4-4-4-4---------------------------------------------------
D|-4-4-4-4-4-4-4-4-4-2-2-2-2-2-2-2-2-6-6-6-6-6-6-6-6-4-4-4-4-4-4-4-4---
A|-2-2-2-2-2-2-2-2-2-2-2-2-2-2-2-2-2-6-6-6-6-6-6-6-6-4-4-4-4-4-4-4-4---
D|-------------------2-2-2-2-2-2-2-2-6-6-6-6-6-6-6-6-4-4-4-4-4-4-4-4---  X2

Now go back to both guitars' intro riffs and play 1X then guitar 2 plays:

E|---------------------------------------------------
B|---------------------------------------------------
G|--4444444444444444---------------------------------
D|--xxxxxxxxxxxxxxxx---------------------------------
A|--2222222222222222---------------------------------
D|---------------------------------------------------
(With wah and flange)

VERSE TWO:

BOTH GUITARS:

E|-------------------------------------------------------------------
B|-------------------------------------------------------------------
G|-4-4-4-4-4-4-4-4-4-4-4-4-4-4-4-4-----------------------------------
D|-4-4-4-4-4-4-4-4-4-4-4-4-4-4-4-4-2-2-2-2-2-2-2-2-6-6-6-6-4-4-4-4---
A|-2-2-2-2-2-2-2-2-2-2-2-2-2-2-2-2-2-2-2-2-2-2-2-2-6-6-6-6-4-4-4-4---
D|---------------------------------2-2-2-2-2-2-2-2-6-6-6-6-4-4-4-4---
[ Tab from: http://www.guitartabs.cc/tabs/y/yellowcard/life_of_a_salesman_tab.html ]
E|---------------------------------------------------
B|---------------------------------------------------
G|-4-4-4-4-4-4-4-4-4-4-4-4-4-4-4-4-------------------
D|-4-4-4-4-4-4-4-4-4-4-4-4-4-4-4-4-2-2-2-2-2-2-2-2---
A|-2-2-2-2-2-2-2-2-2-2-2-2-2-2-2-2-2-2-2-2-2-2-2-2---
D|---------------------------------2-2-2-2-2-2-2-2---

E|---------------------------------------------------
B|---------------------------------------------------
G|---------------------------------------------------
D|--6-6-6-6-6-6-6-6-6-4-4-4-4-4-4-4-4----------------
A|--6-6-6-6-6-6-6-6-6-4-4-4-4-4-4-4-4----------------
D|--6-6-6-6-6-6-6-6-6-4-4-4-4-4-4-4-4----------------

Then both guitars do their prechorus riffs, then their chorus riffs, then go into the bridge:

(NO GUITAR 1)

GUITAR 2:

E|---------------------------------------------------
B|-------------7~------------------------------------
G|--4~---3-4~--X---6-8~------------------------------
D|--X----X-X---4~--X-X-------------------------------
A|--2~---1-2~------4-6~------------------------------
D|---------------------------------------------------

GUITAR 1 CHORDS PLAYED OVER SOLO:

E|----------------------------------------------------------------
B|----------------------------------------------------------------
G|--6-------------4-----------------------------------------------
D|--6-x16--2------4-x32--6-----4-----2------4------2------4-------
A|--4------2-x16--2------6-x4--4-x4--2-x16--4-X16--2-X16--4-X16---
D|---------2-------------6-----4-----2------4------2------4-------

GUITAR 2 SOLO:

E|---------------------------------------------------------------------------| 
B|--------------4h5p4-----4-5~-----------------------------------------------|
G|-4-8-6~--4-6---------6------------6h8p6---6-8~--6b(7)---6---4~-------------|
D|------------------------------6-9-------9----------------------------------|
A|---------------------------------------------------------------------------|
D|---------------------------------------------------------------------------|

E|--------------------------------14p12p11h12~-------------------------------|
B|-12--11--9~---9h11h12--9h1h12----------------------------------------------|
G|---------------------------------------------------------------------------|
D|----------------------------------------------------14-13-14~--------------|
A|---------------------------------------------------------------------------|
D|---------------------------------------------------------------------------|

E|-----------------------------------------------------------14p12p11--------|
B|-------------------------------------------------11-12-14-----------12h14--|
G|---------11--14------------11--14---------11-14----------------------------|
D|-13-14------------13--14-----------13-14-----------------------------------|
A|---------------------------------------------------------------------------|
D|---------------------------------------------------------------------------|
   .  .             .   .

E|---------------------------------------------------------------------------|
B|-11-12-14-16-12~-----------------------------------------------------------|
G|---------------------------------------------------------------------------|
D|---------------------------------------------------------------------------|
A|---------------------------------------------------------------------------|
D|---------------------------------------------------------------------------|

As the last note of the solo rings, guitar 1 does this:

E|------------------------------------------------------------------
B|------------------------------------------------------------------
G|------------------------------------------------------------------
D|-4-4-4-4-4-4-4-4-----------------------------------------4-4-4-4--
A|-2-2-2-2-2-2-2-2-2-2-2-2-2-2-2-2-6-6-6-6-6-6-6-6-4-4-4-4-4-4-4-4--
D|-----------------2-2-2-2-2-2-2-2-6-6-6-6-6-6-6-6-4-4-4-4-4-4-4-4--
P.M. . . . . . . . . . . . . . . . . . . . . . . . . . . . 

Now both guitars do their chorus riffs three times to end the song with

E|-------
B|-------
G|-------
D|--2~---
A|--2~---
D|--2~---



Comments