Yellowcard - Grey Chords & Tabs

 

Grey Chords & Tabs

Yellowcard Chords & Tabs

Version: 1 Type: Tab

Grey Tab

This songs from the new album Lights and Sounds and it hasnt been tabbed yet so i think
i might just do it then. THIS TAB IS 100% CORRECT. This is da first grey tab tabbed so
its good

February 17 2006

Standered tunning

Intro

Not exact strumming
--------------------------------------------------------------|
--------------------------------------------------------------|
-----777777777------------------------------------------------| X2
-----777777777--888888888888----------------------------------|
-----555555555--888888888888----------------------------------|
----------------666666666666----------------------------------|

Verse

--------------------------------------------------------------|
--------------------------------------------------------------|
-----7~-------------------------------------------------------| X2
-----7~----------8~-------------------------------------------|
-----5~----------8~-------------------------------------------|
-----------------6~-------------------------------------------|

--------------------------------------------------------------|
--------------------------------------------------------------|
--------------------------------------------------------------|
--------------------------------------------------------------|
--------------------------------------------------------------|
--------------------------------------------------------------|

Pre Chorus

Not exact strumming

---------------------------------------------------------------|
---------------------------------------------------------------|
-----10-10-10-10-10--------------------------------------------| x1
-----10-10-10-10-10-77777777---55555555---88888888--8-7-8------|
-----8--8--8--8--8--77777777---55555555---88888888--8-7-8------|
--------------------55555555---33333333---66666666--6-5-6------|

Chorus

Not exact strumming
--------------------------------------------------------------|
--------------------------------------------------------------|
-----777777777------------------------------------------------| X2
-----777777777--888888888888----------------------------------|
-----555555555--888888888888----------------------------------|
----------------666666666666----------------------------------|

Verse

--------------------------------------------------------------|
--------------------------------------------------------------|
-----7~-------------------------------------------------------| X2
-----7~----------8~-------------------------------------------|
-----5~----------8~-------------------------------------------|
-----------------6~-------------------------------------------|

Pre Chorus

Not exact strumming

---------------------------------------------------------------|
---------------------------------------------------------------|
-----10-10-10-10-10--------------------------------------------| x1
-----10-10-10-10-10-77777777---55555555---88888888--8-7-8------|
-----8--8--8--8--8--77777777---55555555---88888888--8-7-8------|
--------------------55555555---33333333---66666666--6-5-6------|

After chrous
[ Tab from: http://www.guitartabs.cc/tabs/y/yellowcard/grey_tab.html ]
S means slide
---------------------------------------------------------------|
---------------------------------------------------------------|
-3333333333S-5----------------777777-7-9-10-12-14--------------|
---------------5555555555--77----------------------------------|x1
-1111111111S-3----------------555555-5-7-8--10-12--------------|
---------------3333333333--55----------------------------------|

2nd time around

Not exact strumming

S means slide
---------------------------------------------------------------|
---------------------------------------------------------------|
-3333333333S-5----------------7-9-10-12-14---------------------|
---------------5555555555--77----------------------------------|x1
-1111111111S-3----------------5-7-8--10-12---------------------|
---------------3333333333--55----------------------------------|

Solo kinda thing

--------------------------------------------------------------|
--------------------------------------------------------------|
---7~----5~---------------------------------------------------| x1
---7~----5~---5~---8~-----------------------------------------|
---5~----3~---5~---8~-----------------------------------------|
--------------3~---6~-----------------------------------------|

Pre Chorus

Not exact strumming

---------------------------------------------------------------|
---------------------------------------------------------------|
-----10-10-10-10-10--------------------------------------------| x1
-----10-10-10-10-10-77777777---55555555---88888888--8-7-8------|
-----8--8--8--8--8--77777777---55555555---88888888--8-7-8------|
--------------------55555555---33333333---66666666--6-5-6------|

After chrous

S means slide
---------------------------------------------------------------|
---------------------------------------------------------------|
-3333333333S-5----------------777777-7-9-10-12-14--------------|
---------------5555555555--77----------------------------------|x2
-1111111111S-3----------------555555-5-7-8--10-12--------------|
---------------3333333333--55----------------------------------|

2nd time around

Not exact strumming

S means slide
---------------------------------------------------------------|
---------------------------------------------------------------|
-3333333333S-5----------------7-9-10-12-14---------------------|
---------------5555555555--77----------------------------------|x1
-1111111111S-3----------------5-7-8--10-12---------------------|
---------------3333333333--55----------------------------------|

Chorus

Not exact strumming
--------------------------------------------------------------|
--------------------------------------------------------------|
-----777777777------------------------------------------------| X4
-----777777777--888888888888----------------------------------|
-----555555555--888888888888----------------------------------|
----------------666666666666----------------------------------|

While the chorus is goin u play this

--------------------------------------------------------------|
--------------------------------------------------------------|
---77777777----5555555----------------------------------------| x1
---77777777----5555555---55555555---888888888-----------------|
---55555555----3333333---55555555---888888888-----------------|
-------------------------33333333---666666666-----------------|

And thats it ppl, da first grey tab, tabed enjoy Bitches!

Niv Niruban