Yellowcard - For Petes Sake Chords & Tabs

 

For Petes Sake Chords & Tabs

Yellowcard Chords & Tabs

Version: 3 Type: Tab 0 ratings
1 star 2 stars 3 stars 4 stars 5 stars
comments

For Petes Sake Tab

   
song: For Pete's Sake
Artist: Yellowcard

tabbed by: Matt D
DROP D TUNING

------------------------------------------------------------------------------|
----------10-----------------10------------------10-----------------10--------|
------9------9----9------9------9----9-------9------9----9------9------9----9-|
--11----11-----11-----11---11-----11------11---11-----11-----11---11-----11---|
0-------------------0-------------------9------------------9------------------|
------------------------------------------------------------------------------|

-----------------------------------------------------------------------------|
----------10-----------------10------------------10-----------------10-------|
------9------9----9------9------9----9-------9------9----9-----9------9----9-|
---11---11-----11-----11---11-----11------11---11-----11----11---11-----11---|
-7------------------7--------------------------------------------------------|
---------------------------------------0------------------0------------------|

------------------------------------------------------------------------------|
----------10-----------------10------------------10-----------------10--------|
------9------9----9------9------9----9-------9------9----9------9------9----9-|
--11----11-----11-----11---11-----11------11---11-----11-----11---11-----11---|
0-------------------0---------------------------------------------------------|
----------------------------------------9------------------9------------------|
[ Tab from: http://www.guitartabs.cc/tabs/y/yellowcard/for_petes_sake_tab_ver_3.html ]
----------------------------------------| |------------|
----------10-----------------10---------| |------------| fast strum..many times
------9------9----9------9------9----9--| |---4-4-4-4--|
-11----11-----11-----11---11-----11-----| |---6-6-6-6--|
----------------------------------------| |------------|
0-------------------0-------------------| |------------|
                                          just a little filler into the verse

Heres the violin intro, its fun to play with two people.
-----------------------------------------------------------------------------|
-------------------------------------------------14-15-14---15-14---15-14----|
--11~---9h11p9~------------------------------------------14-------14------14-|
-----------------12-11-12~----11-12-11~-----77x------------------------------|
--------------------------------------------77x------------------------------|
--------------------------------------------77x------------------------------|

violin part con't                  Strum very fast
-----------------------------------15151515151515--------------------|
-15-14------15-14-15-17~--17-19--------------------------------------|
-------14------------------------------------------------------------|
---------------------------------------------------------------------|
---------------------------------------------------------------------|
---------------------------------------------------------------------|

Well thats it for now, thanks for checking it out and Please Rate!
                    -Matt D
Comments