Yellowcard - For Petes Sake Chords & Tabs

 

For Petes Sake Chords & Tabs

Yellowcard Chords & Tabs

Version: 2 Type: Tab 0 ratings
1 star 2 stars 3 stars 4 stars 5 stars
comments

For Petes Sake Tab

Tabbed By: Tony (Mosh2Punk57@aol.com)

E|---------------------------------------------------------------||
B|---------------------------------------------------------------||
G|----9-9--7-6-7-6---------------6----6-7-6-----6----------------||
D|-7------------------9-9----7-9----9---------7-----9h11---------||
A|---------------------------------------------------------------||
D|---------------------------------------------------------------||
[ Tab from: http://www.guitartabs.cc/tabs/y/yellowcard/for_petes_sake_tab_ver_2.html ]
E|---------------------------------------------------------------||
B|---------------------------------------------------------------||
G|----9-9--7-6-7-6---------------6----6-7-6------9-9-------------||
D|-7------------------9-9----7-9----9---------7------------------||
A|---------------------------------------------------------------||
D|---------------------------------------------------------------||

E|---------------------------------------------------------------||
B|---------------------------------------------------------------||
G|----9-9--7-6-7-6---------------6----6-7-6-----6----------------||
D|-7------------------9-9----7-9----9---------7-----9h11---------||
A|---------------------------------------------------------------||
D|---------------------------------------------------------------||

E|---------------------------------------------------------------||
B|---------------------------------------------------------------||
G|----9-9--7-6-7-6-----------------------------------------------||
D|-7------------------9h11p9--7-7--7h9p7--6-6--6h7p6--4~~--------||
A|---------------------------------------------------------------||
D|---------------------------------------------------------------||
Comments