Yellowcard - Finish Line Chords & Tabs

 

Finish Line Chords & Tabs

Yellowcard Chords & Tabs

Version: 2 Type: Tab 0 ratings
1 star 2 stars 3 stars 4 stars 5 stars
comments

Finish Line Tab

   
-------------------------------------------------------------------------------
	                FINISH LINE - Yellowcard
-------------------------------------------------------------------------------
Tabbed by: John	
Email: Poetictragedy51@yahoo.com

Tuning: EADGBe (Standard)

This tab is very incomplete.... but just to give you a general idea of how to
play the song... if anyone knows the solo or knows the EXACT tab, please 
correct me... Until then, this song rules.... Rock on....

Intro (guitar 1 - w/ delay and reverb)
"Hello friend, it's been too long...)
e|---------------------------------------------------------------------------|
B|---1-----1---1-----1---1-----1---1-----1---1-----1---1-----1---1-----1-----|
G|-2---2-2-------------0---0-0---------------------------------0---0-0-------|
D|-----------3---3-3-----------------------2---2-2---3---3-3-----------------|
A|-------------------------------3---2-2---------------------------------3---|
E|---------------------------------------------------------------------------|

Fill:

Guitar 1 (string ensemble arranged for guitar)
                        (Not sure about this part....)
e|--------------------------------------------------8-10----|
B|--------------------------------------------10-12------12-|
G|-10-9-------10-9-7h9-----9-9-9-10--10-10-12---------------|
D|------10--------------10----------------------------------|
A|---------10-----------------------------------------------|
E|----------------------------------------------------------|
[ Tab from: http://www.guitartabs.cc/tabs/y/yellowcard/finish_line_tab_ver_2.html ]
Guitar 2- (strum each chord... strumming pattern is easy)
e|----------------------------------------------------------|
B|----------------------------------------------------------|
G|-------------5--4-----------------------------------------|
D|-7------3--5-5--5----2---3---5----------------------------|
A|-7------3--5-3--2----2---3---5----------------------------|
E|-5------1--3---------0---1---3----------------------------|

Verse (first half is just bass/second half I'm not sure)

Breakdown (just before chorus)

Guitar 1-
e|---------------------------------------------------------------------------|
B|--1--1----1--------------1-----1-----1-----------1-----1----1--------------|
G|------------0---0-----------------------0---0-----------------0---0--------|
D|-3-33-3-3-----3---------3--3-3---3-3------3----3---3-3---33-----3----------|
A|---------------------------------------------------------------------------|
E|---------------------------------------------------------------------------|

Guitar 2-
e|---------------------------------------------------------------------------|
B|---------------------------------------------------------------------------|
G|---------------------------------------------------------------------------|
D|-3-----3-3---------------3-----3-3--------------3------3-3-----------------|
A|-3-----3-3---------------3-----3-3--------------3------3-3-----------------|
E|-1-----1-1---------------1-----1-1--------------1------1-1-----------------|

Chorus-
             ....this part x2         ...then
e|-----------------------------------|---------------------------------------|
B|-----------------------------------|---------------------------------------|
G|-5-5-5-5-5-4-4-4-4-4-4-------------|-5-5-5-5-5-5-4-4-4-4-4-4---------------|
D|-5-5-5-5-5-5-5-5-5-5-5-3-3-3-3-3-3-|-5-5-5-5-5-5-5-5-5-5-5-5-3-3-3-3-5-5-5-|
A|-3-3-3-3-3-2-2-2-2-2-2-3-3-3-3-3-3-|-3-3-3-3-3-3-2-2-2-2-2-2-3-3-3-3-5-5-5-|
E|-----------------------1-1-1-1-1-1-|-------------------------1-1-1-1-3-3-3-|


| /  slide up
| \  slide down
| h  hammer-on
| p  pull-off
| ~  vibrato
| +  harmonic
| x  Mute note
===============================================================================
Comments