Yellowcard - Empty Apartment Chords & Tabs

 

Empty Apartment Chords & Tabs

Yellowcard Chords & Tabs

Version: 4 Type: Tab 0 ratings
1 star 2 stars 3 stars 4 stars 5 stars
comments

Empty Apartment Tab

Artist: Yellowcard
Track Empty apartment
Album: Ocean Avenue


Okay so here is the solo for 'Empty apartment' by Yellowcard, I've also thrown in the
violin solo at the end, which has been translated for guitar!

E --------------------------------------------------------------|
B --------------------------------------------------------------|
G --------------------------------------------------------------|
D -12-10-10-12~--12-10-12-10~---10-12-14~~-14-12-14-12--12-10---|
A ---------------------------12---------------------------------|
E --------------------------------------------------------------|

E ------------------------------------------------------|
B ------------------------------------------------------|
G -----12~----------------------------------------------|
D -12b-----12-10-12--10--------10-10-10-9---------------|
A ----------------------10/12--------------10-10/12~~---|
E ------------------------------------------------------|
[ Tab from: http://www.guitartabs.cc/tabs/y/yellowcard/empty_apartment_tab_ver_4.html ]
That's practically it, maybe play some notes a couple more times but that's it!


Violin solo:

E ---------------------------------------------------------------------------|
B -------17~------17-18-17------------17-18-17-18-17-18-20-18-17-18----------|
G -17-19-----17-19----------19-17--19-------------------------------19--17---|
D ---------------------------------------------------------------------------|
A ---------------------------------------------------------------------------|
E ---------------------------------------------------------------------------|

E -----------------------------------------------------------20~~~------|
B --------------------------------------17-18-20~~-----20~~-------------|
G -----17------------17-----------17-19-------------17------------------|
D --17----17-17---17----17-17--17---------------------------------------|
A ----------------------------------------------------------------------|
E ----------------------------------------------------------------------|

...And there it is, enjoy!
Comments