Yellowcard - Empty Apartment Chords & Tabs

 

Empty Apartment Chords & Tabs

Yellowcard Chords & Tabs

Version: 3 Type: Tab 0 ratings
1 star 2 stars 3 stars 4 stars 5 stars
comments

Empty Apartment Tab

   
--------------------------------------------------------------------------------|
                 EMPTY APARTMENT - Yellowcard-----------------------------------|
Tabbed by:skaterspaz902
Email:N/A

Tuning:EADGBE

VERSE 1
  ..out............inside...........loved...........you hide.......
e|--0-0-0-0-0-0-0---0-0-0-0-0-0-0---3-3-3-3-3-3-3---0-0-0-0-0-0-0------------|
B|--1-1-1-1-1-1-1---1-1-1-1-1-1-1---3-3-3-3-3-3-3---3-3-3-3-3-3-3------------|
G|--2-2-2-2-2-2-2---0-0-0-0-0-0-0---0-0-0-0-0-0-0---2-2-2-2-2-2-2------------|
D|--2-2-2-2-2-2-2---2-2-2-2-2-2-2---0-0-0-0-0-0-0---0-0-0-0-0-0-0------------|
A|--0-0-0-0-0-0-0---3-3-3-3-3-3-3---2-2-2-2-2-2-2---2-2-2-2-2-2-2------------|
E|--0-0-0-0-0-0-0---0-0-0-0-0-0-0---3-3-3-3-3-3-3---0-0-0-0-0-0-0------------|
shot me down.......flew by..crash n burn.............sometimes...
e|--0-0-0-0-0-0-0---0-0-0-0-0-0-0---3-3-3-3-3-3-3---0-0-0-0-0-0-0------------|
B|--1-1-1-1-1-1-1---1-1-1-1-1-1-1---3-3-3-3-3-3-3---3-3-3-3-3-3-3------------|
G|--2-2-2-2-2-2-2---0-0-0-0-0-0-0---0-0-0-0-0-0-0---2-2-2-2-2-2-2------------|
D|--2-2-2-2-2-2-2---2-2-2-2-2-2-2---0-0-0-0-0-0-0---0-0-0-0-0-0-0------------|
A|--0-0-0-0-0-0-0---3-3-3-3-3-3-3---2-2-2-2-2-2-2---2-2-2-2-2-2-2------------|
E|--0-0-0-0-0-0-0---0-0-0-0-0-0-0---3-3-3-3-3-3-3---0-0-0-0-0-0-0------------|
 you forget where the heart is
e|--1-1-1-1-1-1---1-----------------------------------------------------------|
B|--1-1-1-1-1-1---1-----------------------------------------------------------|
G|--2-2-2-2-2-2---1-----repeat 2 times----------------------------------------|
D|--3-3-3-3-3-3---3-----------------------------------------------------------|
A|--3-3-3-3-3-3---3-----------------------------------------------------------|
E|--1-1-1-1-1-1---1-----------------------------------------------------------|

CHORUS
e|--0-0-0-0-0-0-0---0-0-0-0-0-0-0---0-0-0-0-0-0-0---1-1-1-1-1-1-1-------------|
B|--1-1-1-1-1-1-1---1-1-1-1-1-1-1---1-1-1-1-1-1-1---1-1-1-1-1-1-1-------------|
G|--0-0-0-0-0-0-0---0-0-0-0-0-0-0---2-2-2-2-2-2-2---2-2-2-2-2-2-2---(x2)------|
D|--2-2-2-2-2-2-2---0-0-0-0-0-0-0---2-2-2-2-2-2-2---3-3-3-3-3-3-3-------------|
A|--3-3-3-3-3-3-3---2-2-2-2-2-2-2---0-0-0-0-0-0-0---3-3-3-3-3-3-3-------------|
E|--0-0-0-0-0-0-0---0-0-0-0-0-0-0---0-0-0-0-0-0-0---1-1-1-1-1-1-1-------------|
[ Tab from: http://www.guitartabs.cc/tabs/y/yellowcard/empty_apartment_tab_ver_3.html ]
SOLO
e|---------------------------------------------------------------------------|
B|---------------------------------------------------------------------------|
G|--7-5-5-7--7-5-7-5---5/9-9-9-7~-7\5-7b-8-7-5---5---------------------------|
D|-------------------7-------------------------7---7---7h10-10-10-10\9-9-5/7-|
A|---------------------------------------------------------------------------|
E|---------------------------------------------------------------------------|

Waking up
e|-----0----------------------0-----------------1-1-1-1-1-1-1-1-1-1----------|
B|------1-----1-------1------3-3----------------1-1-1-1-1-1-1-1-1-1----------|
G|----2--2---0-0-----0-0----2---2--(twice)into--2-2-2-2-2-2-2-2-2-2----------|
D|---2------2---2---0---0-----------------------3-3-3-3-3-3-3-3-3-3----------|
A|--0------3-------2-------0--------------------3-3-3-3-3-3-3-3-3-3----------|
E|----------------------------------------------2-2-2-2-2-2-2-2-2-2----------|

CHORUS
e|--0-0-0-0-0-0-0---0-0-0-0-0-0-0---0-0-0-0-0-0-0---1-1-1-1-1-1-1-------------|
B|--1-1-1-1-1-1-1---1-1-1-1-1-1-1---1-1-1-1-1-1-1---1-1-1-1-1-1-1-------------|
G|--0-0-0-0-0-0-0---0-0-0-0-0-0-0---2-2-2-2-2-2-2---2-2-2-2-2-2-2---(x2)------|
D|--2-2-2-2-2-2-2---0-0-0-0-0-0-0---2-2-2-2-2-2-2---3-3-3-3-3-3-3-------------|
A|--3-3-3-3-3-3-3---2-2-2-2-2-2-2---0-0-0-0-0-0-0---3-3-3-3-3-3-3-------------|
E|--0-0-0-0-0-0-0---0-0-0-0-0-0-0---0-0-0-0-0-0-0---1-1-1-1-1-1-1-------------|

i dont know the next part, the combination of chords......
use these 4 chords with distortion
e|--0-0-0-0----0-0-0-0---0-0-0-0---1-1-1-1-------------------|
B|--1-1-1-1----1-1-1-1---1-1-1-1---1-1-1-1-------------------|
G|--0-0-0-0----0-0-0-0---2-2-2-2---2-2-2-2-------------------|
D|--2-2-2-2----0-0-0-0---2-2-2-2---3-3-3-3-------------------|
A|--3-3-3-3----2-2-2-2---0-0-0-0---3-3-3-3-------------------|
E|--0-0-0-0----0-0-0-0---0-0-0-0---1-1-1-1-------------------|

play the chorus during the violin solo then it goes back to the 4 distorted 
first time do this....

 take you away
e|-------------0-0-0-0---0-0-0-0---1-1-1-1-------------------|
B|-------------1-1-1-1---1-1-1-1---1-1-1-1-------------------|
G|-------------0-0-0-0---2-2-2-2---2-2-2-2-------------------|
D|-------------0-0-0-0---2-2-2-2---3-3-3-3-------------------|
A|-------------2-2-2-2---0-0-0-0---3-3-3-3-------------------|
E|-------------0-0-0-0---0-0-0-0---1-1-1-1-------------------|
leave out the first chord set...listen to the song and you'll hear it.


ENDING
Its okay.................................
e|--0-0-0-0---0-0-0-0---0-0-0-0---1-1-1-1-------------------|
B|--1-1-1-1---1-1-1-1---1-1-1-1---1-1-1-1-------------------|
G|--0-0-0-0---0-0-0-0---2-2-2-2---2-2-2-2-----twice---------|
D|--2-2-2-2---0-0-0-0---2-2-2-2---3-3-3-3-------------------|
A|--3-3-3-3---2-2-2-2---0-0-0-0---3-3-3-3-------------------|
E|--0-0-0-0---0-0-0-0---0-0-0-0---1-1-1-1-------------------|

| /  slide up
| \  slide down
| h  hammer-on
| p  pull-off
| ~  vibrato
| +  harmonic
| x  Mute note
===============================================================================
Comments