Yellowcard - Empty Apartment Chords & Tabs

 

Empty Apartment Chords & Tabs

Yellowcard Chords & Tabs

Version: 3 Type: Bass Tab 0 ratings
1 star 2 stars 3 stars 4 stars 5 stars
comments

Empty Apartment Bass Tab

~=let ring
/= irregular rythim (listen to the music closely)

Intro
G-2-5-4-0--|x2
D--------4-|
A----------|
E----------|

"answer no..."
G-------|
D-3-2---|
A-----3-|
E-------|

Verse
G----------------------|
D----------5-5/7-5-4-0-|  x2
A-0~-2-3--3------------|
E----------------------|

Pre-chorus
G---------0-1-0-1-0--|
D-2-3-2-3----------3-|
A--------------------|
E--------------------|

chorus
G-----------------------------------|---------------------------------------|
D-----------------------------------|---------------------------------------|
A-3-3-3-3--2-2-2-2--0-0-0-0---------|-3-3-3-3--2-2-2-2--0-0-0-0-------------|
E---------------------------1-1-1-1-|---------------------------1/2-3/2-1/2-|

Verse x4

pre-chorus
[ Tab from: http://www.guitartabs.cc/tabs/y/yellowcard/empty_apartment_btab_ver_3.html ]
chorus
G-----------------------------------|---------------------------------------|
D-----------------------------------|---------------------------------------|
A-3-3-3-3--2-2-2-2--0-0-0-0---------|-3-3-3-3--2-2-2-2--0-0-0-0-------------|
E---------------------------1-1-1-1-|---------------------------1/2-3/5-7/8~|

bridge
G-------------------| 
D-------------------| 
A-------------------| 
E-7~----5~----1~----| 

G---------------------|x2          |------------------------|
D---------------------|            |------------------------|
A-3333-2222-0000------|            |-3333-2222-000000-------|
E----------------1111-|            |-----------------111111-|

G-----------------------------|----------------------------------|
D-----------------------------|----------------------------------|
A-333333-222222-000000--------|-333333-222222-000000-------------|
E----------------------111111-|----------------------1/2-3/5-7/8~|

G-----------------------|-------------------------------|
D-----------------------|-------------------------------|
A--222222-000000--------|-333333-222222-000000----------|
E----------------111111-|----------------------111/1111-|

|--------------------------------|x2
|--------------------------------|
|-333333-222/2222-000000---------|
|-----------------------111/1111-|
Comments