Yellowcard - Down On My Head Chords & Tabs

 

Down On My Head Chords & Tabs

Yellowcard Chords & Tabs

Version: 2 Type: Bass Tab

Down On My Head Bass Tab

Song: Down on my head
Band: Yellowcard
Album: Lights and sounds
Bassist: Pete Mowlsey
Tabbed by: Pete Boyle

Here you go.

Intro:
G|-------------------------------------------------------------------|
D|-------------------------------------------------------------------|
A|------------------------------------------5-5-5-5-4-4-4-4-4-4-4-4--|
E|--2-2-2-2-4-4-4-4-5-5-5-5-5-5-5-5-2-2-2-2--------------------------|

Verse:

G|------------------------------------------------------------------|
D|------------------------------------------------------------------|
A|------------------5-5-5-5-5-5-5-5-----------------5-5-5-5-5-5-5-5-|
E|--5-5-5-5-7-7-7-7-----------------5-5-5-5-7-7-7-7-----------------|

|---------------------------------------------------------------------|
|---------------------------------------------------------------------| (x2)
|----------------------------------------5-5-5-5-4-4-4-4-4-4-4-4------|
|2-2-2-2-4-4-4-4-5-5-5-5-5-5-5-5-2-2-2-2------------------------------|


PreChorus:

G|-------------------------------------------------------------------|
D|-------------------------------------------------------------------|
A|-------------------------------------------------------------------|
E|--4~--------------5~--------------2~-------------------------------|
[ Tab from: http://www.guitartabs.cc/tabs/y/yellowcard/down_on_my_head_btab_ver_2.html ]
Chorus:
e|-------------------------------------------------------------------|
B|-------------------------------------------------------------------|
G|-------------------------------------------------------------------|
D|-------------------------------------------------------------------| (X2)
A|----------------------------------5-5-5-5-5-5-5-5------------------|
E|--2-2-2-2-2-2-2-2-5-5-5-5-5-5-5-5-----------------5-5-5-5-4-4-4-4--|

-Verse 

-PreChorus

-Chorus (X4)

Bridge 2:10
G|-------------------------------------------------------------------|
D|-------------------------------------------------------------------|
A|--9-9-9-9-9-9-9-9-7-7-7-7-7-7-7-7-2-2-2-2-2-2-2-2-2-2-2-2-2-2-2-2--|(x4)
E|-------------------------------------------------------------------|

G|-------------------------------------------------------------------|
D|-------------------------------------------------------------------|
A|--9-9-9-9-9-9-9-9-7-7-7-7-7-7-7-7-2-2-2-2-2-2-2-5-5-5-5-5-5-5-5-5--|
E|-------------------------------------------------------------------|

-Chorus (x2)

Final Chorus:
G|-------------------------------------------------------------------|
D|-------------------------------------------------------------------| (x2)
A|----------------------------------5-5-5-5-5-5----------------------|
E|--2-2-2-2-2-2-2-2-5-5-5-5-5-5-5-5-------------5-5-5-5-4-4-4-4-4-4--|

Thanks.