Yellowcard - City Of Devils Chords & Tabs

 

City Of Devils Chords & Tabs

Yellowcard Chords & Tabs

Version: 1 Type: Tab

City Of Devils Tab

this is apperently played on a acoustic bass....but it sounds like a regular guitar to 
u go...its that little solo in the beginning

e-----------------------------|
B--12~---8~----8-10h-8p-------|
G----------------------9-9~---|
D-----------------------------|
A-----------------------------|
E-----------------------------|
[ Tab from: http://www.guitartabs.cc/tabs/y/yellowcard/city_of_devils_tab.html ]
e--------------------|
B--------------------|
G--------------------|
D--45-5--45-5/7-7/9--|
A--------------------|
E--------------------|

e-----------------------|
B--3/8-8-8-88-7-8/10----|
G--------------------9--|
D-----------------------|
A-----------------------|
E-----------------------|


this was how it was played in the recording...this tab was submitted by William Gavrielatos